ISO-10303-21;
HEADER;
FILE_DESCRIPTION (( 'STEP AP214' ),
    '1' );
FILE_NAME ('am-3947-1000 375H x 1000IN Spacer.STEP',
    '2018-09-24T21:06:19',
    ( '' ),
    ( '' ),
    'SwSTEP 2.0',
    'SolidWorks 2018',
    '' );
FILE_SCHEMA (( 'AUTOMOTIVE_DESIGN' ));
ENDSEC;

DATA;
#1 = PLANE ( 'NONE',  #44 ) ;
#2 = LINE ( 'NONE', #167, #74 ) ;
#3 = EDGE_LOOP ( 'NONE', ( #243 ) ) ;
#4 = CARTESIAN_POINT ( 'NONE',  ( -0.2165063509461097047, 3.211045840221350913E-17, 1.000000000000000000 ) ) ;
#5 = DIRECTION ( 'NONE',  ( 1.000000000000000000, 3.154466349054401728E-16, 0.0000000000000000000 ) ) ;
#6 = CARTESIAN_POINT ( 'NONE',  ( 0.1082531754730549634, -0.1874999999999999167, 0.0000000000000000000 ) ) ;
#7 = EDGE_CURVE ( 'NONE', #40, #26, #116, .T. ) ;
#8 = DIRECTION ( 'NONE',  ( 0.5000000000000000000, 0.8660254037844385966, 0.0000000000000000000 ) ) ;
#9 = ORIENTED_EDGE ( 'NONE', *, *, #187, .F. ) ;
#10 = CIRCLE ( 'NONE', #194, 0.3937007874015748254 ) ;
#11 =( GEOMETRIC_REPRESENTATION_CONTEXT ( 3 ) GLOBAL_UNCERTAINTY_ASSIGNED_CONTEXT ( ( #96 ) ) GLOBAL_UNIT_ASSIGNED_CONTEXT ( ( #189, #19, #16 ) ) REPRESENTATION_CONTEXT ( 'NONE', 'WORKASPACE' ) );
#12 = CARTESIAN_POINT ( 'NONE',  ( 0.1082531754730547829, 0.1875000000000000555, 0.0000000000000000000 ) ) ;
#13 = CARTESIAN_POINT ( 'NONE',  ( 0.0000000000000000000, 0.0000000000000000000, 0.0000000000000000000 ) ) ;
#14 = ORIENTED_EDGE ( 'NONE', *, *, #164, .F. ) ;
#15 =( LENGTH_UNIT ( ) NAMED_UNIT ( * ) SI_UNIT ( $, .METRE. ) );
#16 =( NAMED_UNIT ( * ) SI_UNIT ( $, .STERADIAN. ) SOLID_ANGLE_UNIT ( ) );
#17 = LINE ( 'NONE', #287, #128 ) ;
#18 = APPLICATION_PROTOCOL_DEFINITION ( 'draft international standard', 'automotive_design', 1998, #244 ) ;
#19 =( NAMED_UNIT ( * ) PLANE_ANGLE_UNIT ( ) SI_UNIT ( $, .RADIAN. ) );
#20 = EDGE_CURVE ( 'NONE', #40, #111, #252, .T. ) ;
#21 = EDGE_CURVE ( 'NONE', #255, #290, #121, .T. ) ;
#22 = LINE ( 'NONE', #222, #273 ) ;
#23 = CARTESIAN_POINT ( 'NONE',  ( -0.1082531754730547829, -0.1874999999999999722, 0.0000000000000000000 ) ) ;
#24 = FACE_OUTER_BOUND ( 'NONE', #294, .T. ) ;
#25 = AXIS2_PLACEMENT_3D ( 'NONE', #95, #68, #125 ) ;
#26 = VERTEX_POINT ( 'NONE', #149 ) ;
#27 = DIRECTION ( 'NONE',  ( -0.0000000000000000000, -0.0000000000000000000, -1.000000000000000000 ) ) ;
#28 = CARTESIAN_POINT ( 'NONE',  ( 0.0000000000000000000, 0.0000000000000000000, 1.000000000000000000 ) ) ;
#29 = CARTESIAN_POINT ( 'NONE',  ( 0.0000000000000000000, 0.0000000000000000000, 0.0000000000000000000 ) ) ;
#30 = VECTOR ( 'NONE', #90, 39.37007874015748143 ) ;
#31 = LINE ( 'NONE', #58, #229 ) ;
#32 = DIRECTION ( 'NONE',  ( 0.0000000000000000000, 0.0000000000000000000, 1.000000000000000000 ) ) ;
#33 = DIRECTION ( 'NONE',  ( -0.5000000000000002220, -0.8660254037844384856, 0.0000000000000000000 ) ) ;
#34 = EDGE_CURVE ( 'NONE', #290, #277, #177, .T. ) ;
#35 = DIRECTION ( 'NONE',  ( -1.000000000000000000, -3.154466349054401235E-16, 0.0000000000000000000 ) ) ;
#36 = AXIS2_PLACEMENT_3D ( 'NONE', #29, #32, #178 ) ;
#37 = DIRECTION ( 'NONE',  ( -0.5000000000000000000, -0.8660254037844385966, 0.0000000000000000000 ) ) ;
#38 = ADVANCED_FACE ( 'NONE', ( #24 ), #262, .T. ) ;
#39 = ORIENTED_EDGE ( 'NONE', *, *, #286, .F. ) ;
#40 = VERTEX_POINT ( 'NONE', #181 ) ;
#41 = SURFACE_STYLE_USAGE ( .BOTH. , #210 ) ;
#42 = AXIS2_PLACEMENT_3D ( 'NONE', #4, #160, #269 ) ;
#43 = CARTESIAN_POINT ( 'NONE',  ( -0.1082531754730548107, 0.1875000000000000555, 0.0000000000000000000 ) ) ;
#44 = AXIS2_PLACEMENT_3D ( 'NONE', #13, #109, #283 ) ;
#45 = COLOUR_RGB ( '',1.000000000000000000, 1.000000000000000000, 1.000000000000000000 ) ;
#46 = EDGE_CURVE ( 'NONE', #26, #231, #143, .T. ) ;
#47 = DIRECTION ( 'NONE',  ( -0.0000000000000000000, -0.0000000000000000000, -1.000000000000000000 ) ) ;
#48 = ORIENTED_EDGE ( 'NONE', *, *, #20, .F. ) ;
#49 = SURFACE_STYLE_FILL_AREA ( #113 ) ;
#50 = PRODUCT_DEFINITION_CONTEXT ( 'detailed design', #279, 'design' ) ;
#51 = ADVANCED_FACE ( 'NONE', ( #136 ), #268, .T. ) ;
#52 = PLANE ( 'NONE',  #203 ) ;
#53 = AXIS2_PLACEMENT_3D ( 'NONE', #103, #57, #228 ) ;
#54 = EDGE_CURVE ( 'NONE', #196, #196, #10, .T. ) ;
#55 = FACE_OUTER_BOUND ( 'NONE', #3, .T. ) ;
#56 = EDGE_LOOP ( 'NONE', ( #66 ) ) ;
#57 = DIRECTION ( 'NONE',  ( 0.8660254037844385966, -0.5000000000000003331, 0.0000000000000000000 ) ) ;
#58 = CARTESIAN_POINT ( 'NONE',  ( -0.1082531754730548107, 0.1875000000000000555, 1.000000000000000000 ) ) ;
#59 =( NAMED_UNIT ( * ) PLANE_ANGLE_UNIT ( ) SI_UNIT ( $, .RADIAN. ) );
#60 = VECTOR ( 'NONE', #62, 39.37007874015748143 ) ;
#61 = DIRECTION ( 'NONE',  ( -3.154466349054401235E-16, 1.000000000000000000, 0.0000000000000000000 ) ) ;
#62 = DIRECTION ( 'NONE',  ( -0.0000000000000000000, -0.0000000000000000000, -1.000000000000000000 ) ) ;
#63 = ORIENTED_EDGE ( 'NONE', *, *, #115, .T. ) ;
#64 = ADVANCED_FACE ( 'NONE', ( #172 ), #94, .T. ) ;
#65 = APPLICATION_PROTOCOL_DEFINITION ( 'draft international standard', 'automotive_design', 1998, #279 ) ;
#66 = ORIENTED_EDGE ( 'NONE', *, *, #309, .T. ) ;
#67 = ORIENTED_EDGE ( 'NONE', *, *, #46, .F. ) ;
#68 = DIRECTION ( 'NONE',  ( -0.8660254037844385966, -0.5000000000000001110, 0.0000000000000000000 ) ) ;
#69 = ADVANCED_FACE ( 'NONE', ( #72, #138 ), #1, .F. ) ;
#70 = EDGE_CURVE ( 'NONE', #118, #99, #140, .T. ) ;
#71 = SURFACE_SIDE_STYLE ('',( #217 ) ) ;
#72 = FACE_OUTER_BOUND ( 'NONE', #249, .T. ) ;
#73 = VECTOR ( 'NONE', #5, 39.37007874015748143 ) ;
#74 = VECTOR ( 'NONE', #235, 39.37007874015748143 ) ;
#75 = MECHANICAL_DESIGN_GEOMETRIC_PRESENTATION_REPRESENTATION (  '', ( #145 ), #81 ) ;
#76 = ORIENTED_EDGE ( 'NONE', *, *, #263, .T. ) ;
#77 = DIRECTION ( 'NONE',  ( 0.0000000000000000000, 0.0000000000000000000, 1.000000000000000000 ) ) ;
#78 = ADVANCED_FACE ( 'NONE', ( #285 ), #266, .T. ) ;
#79 = LENGTH_MEASURE_WITH_UNIT ( LENGTH_MEASURE( 0.02539999999999999897 ), #188 );
#80 = PRODUCT ( 'am-3947-1000 375H x 1000IN Spacer', 'am-3947-1000 375H x 1000IN Spacer', '', ( #215 ) ) ;
#81 =( GEOMETRIC_REPRESENTATION_CONTEXT ( 3 ) GLOBAL_UNCERTAINTY_ASSIGNED_CONTEXT ( ( #154 ) ) GLOBAL_UNIT_ASSIGNED_CONTEXT ( ( #295, #240, #166 ) ) REPRESENTATION_CONTEXT ( 'NONE', 'WORKASPACE' ) );
#82 = ADVANCED_FACE ( 'NONE', ( #55, #218 ), #293, .T. ) ;
#83 = ORIENTED_EDGE ( 'NONE', *, *, #91, .F. ) ;
#85 = VECTOR ( 'NONE', #300, 39.37007874015748143 ) ;
#84 = CARTESIAN_POINT ( 'NONE',  ( 0.2165063509461097047, -7.084637897906329745E-17, 0.0000000000000000000 ) ) ;
#86 = EDGE_CURVE ( 'NONE', #302, #118, #219, .T. ) ;
#87 = VECTOR ( 'NONE', #296, 39.37007874015748143 ) ;
#88 = LINE ( 'NONE', #168, #236 ) ;
#89 = FILL_AREA_STYLE ('',( #200 ) ) ;
#90 = DIRECTION ( 'NONE',  ( 1.000000000000000000, 3.154466349054401728E-16, 0.0000000000000000000 ) ) ;
#91 = EDGE_CURVE ( 'NONE', #102, #111, #297, .T. ) ;
#92 = VECTOR ( 'NONE', #8, 39.37007874015748854 ) ;
#93 = PRESENTATION_LAYER_ASSIGNMENT (  '', '', ( #107 ) ) ;
#94 = PLANE ( 'NONE',  #150 ) ;
#95 = CARTESIAN_POINT ( 'NONE',  ( 0.2165063509461097047, -7.084637897906329745E-17, 1.000000000000000000 ) ) ;
#96 = UNCERTAINTY_MEASURE_WITH_UNIT (LENGTH_MEASURE( 1.000000000000000082E-05 ), #189, 'distance_accuracy_value', 'NONE');
#97 = UNCERTAINTY_MEASURE_WITH_UNIT (LENGTH_MEASURE( 1.000000000000000082E-05 ), #305, 'distance_accuracy_value', 'NONE');
#98 = ADVANCED_FACE ( 'NONE', ( #306 ), #139, .T. ) ;
#99 = VERTEX_POINT ( 'NONE', #23 ) ;
#100 = DIMENSIONAL_EXPONENTS ( 1.000000000000000000, 0.0000000000000000000, 0.0000000000000000000, 0.0000000000000000000, 0.0000000000000000000, 0.0000000000000000000, 0.0000000000000000000 ) ;
#101 = DIMENSIONAL_EXPONENTS ( 1.000000000000000000, 0.0000000000000000000, 0.0000000000000000000, 0.0000000000000000000, 0.0000000000000000000, 0.0000000000000000000, 0.0000000000000000000 ) ;
#102 = VERTEX_POINT ( 'NONE', #161 ) ;
#103 = CARTESIAN_POINT ( 'NONE',  ( -0.1082531754730548107, 0.1875000000000000555, 1.000000000000000000 ) ) ;
#104 = CARTESIAN_POINT ( 'NONE',  ( -0.1082531754730547829, -0.1874999999999999722, 1.000000000000000000 ) ) ;
#105 = DIRECTION ( 'NONE',  ( -0.0000000000000000000, -0.0000000000000000000, -1.000000000000000000 ) ) ;
#106 = LINE ( 'NONE', #288, #208 ) ;
#107 = STYLED_ITEM ( 'NONE', ( #301 ), #137 ) ;
#108 = DIRECTION ( 'NONE',  ( 0.0000000000000000000, -1.000000000000000000, 0.0000000000000000000 ) ) ;
#109 = DIRECTION ( 'NONE',  ( 0.0000000000000000000, 0.0000000000000000000, 1.000000000000000000 ) ) ;
#110 = VECTOR ( 'NONE', #170, 39.37007874015748143 ) ;
#111 = VERTEX_POINT ( 'NONE', #84 ) ;
#112 = VECTOR ( 'NONE', #256, 39.37007874015748143 ) ;
#113 = FILL_AREA_STYLE ('',( #205 ) ) ;
#114 = DIMENSIONAL_EXPONENTS ( 1.000000000000000000, 0.0000000000000000000, 0.0000000000000000000, 0.0000000000000000000, 0.0000000000000000000, 0.0000000000000000000, 0.0000000000000000000 ) ;
#115 = EDGE_CURVE ( 'NONE', #111, #231, #238, .T. ) ;
#116 = LINE ( 'NONE', #191, #85 ) ;
#117 = ORIENTED_EDGE ( 'NONE', *, *, #21, .T. ) ;
#118 = VERTEX_POINT ( 'NONE', #234 ) ;
#119 = ADVANCED_FACE ( 'NONE', ( #253 ), #216, .T. ) ;
#120 = ADVANCED_FACE ( 'NONE', ( #289, #303 ), #52, .T. ) ;
#121 = LINE ( 'NONE', #122, #87 ) ;
#122 = CARTESIAN_POINT ( 'NONE',  ( -0.2165063509461097047, 3.211045840221350913E-17, 1.000000000000000000 ) ) ;
#123 = PRODUCT_DEFINITION_FORMATION_WITH_SPECIFIED_SOURCE ( 'ANY', '', #80, .NOT_KNOWN. ) ;
#124 = VECTOR ( 'NONE', #33, 39.37007874015749564 ) ;
#125 = DIRECTION ( 'NONE',  ( 0.5000000000000001110, -0.8660254037844385966, 0.0000000000000000000 ) ) ;
#126 = ORIENTED_EDGE ( 'NONE', *, *, #180, .T. ) ;
#127 = DIRECTION ( 'NONE',  ( 0.5000000000000003331, -0.8660254037844383745, 0.0000000000000000000 ) ) ;
#128 = VECTOR ( 'NONE', #209, 39.37007874015748143 ) ;
#129 = ORIENTED_EDGE ( 'NONE', *, *, #115, .F. ) ;
#130 = AXIS2_PLACEMENT_3D ( 'NONE', #311, #146, #37 ) ;
#131 = EDGE_LOOP ( 'NONE', ( #152 ) ) ;
#132 = DIRECTION ( 'NONE',  ( 1.000000000000000000, 0.0000000000000000000, 0.0000000000000000000 ) ) ;
#133 = ORIENTED_EDGE ( 'NONE', *, *, #187, .T. ) ;
#134 = LINE ( 'NONE', #155, #73 ) ;
#135 = CARTESIAN_POINT ( 'NONE',  ( -0.1082531754730548107, 0.1875000000000000555, 1.000000000000000000 ) ) ;
#136 = FACE_OUTER_BOUND ( 'NONE', #298, .T. ) ;
#137 = MANIFOLD_SOLID_BREP ( 'Boss-Extrude1', #169 ) ;
#138 = FACE_BOUND ( 'NONE', #299, .T. ) ;
#139 = PLANE ( 'NONE',  #42 ) ;
#140 = LINE ( 'NONE', #227, #308 ) ;
#141 = PRODUCT_DEFINITION_SHAPE ( 'NONE', 'NONE',  #195 ) ;
#142 = DIRECTION ( 'NONE',  ( 0.5000000000000000000, 0.8660254037844385966, 0.0000000000000000000 ) ) ;
#143 = LINE ( 'NONE', #207, #60 ) ;
#144 = ORIENTED_EDGE ( 'NONE', *, *, #184, .F. ) ;
#145 = STYLED_ITEM ( 'NONE', ( #232 ), #212 ) ;
#146 = DIRECTION ( 'NONE',  ( -0.8660254037844387076, 0.5000000000000001110, 0.0000000000000000000 ) ) ;
#147 = CARTESIAN_POINT ( 'NONE',  ( 0.0000000000000000000, 0.0000000000000000000, 1.000000000000000000 ) ) ;
#148 = MECHANICAL_DESIGN_GEOMETRIC_PRESENTATION_REPRESENTATION (  '', ( #107 ), #11 ) ;
#149 = CARTESIAN_POINT ( 'NONE',  ( 0.1082531754730547829, 0.1875000000000000555, 1.000000000000000000 ) ) ;
#150 = AXIS2_PLACEMENT_3D ( 'NONE', #223, #108, #251 ) ;
#151 = EDGE_LOOP ( 'NONE', ( #239, #9, #241, #162, #39, #278 ) ) ;
#152 = ORIENTED_EDGE ( 'NONE', *, *, #54, .T. ) ;
#153 = EDGE_CURVE ( 'NONE', #290, #99, #106, .T. ) ;
#154 = UNCERTAINTY_MEASURE_WITH_UNIT (LENGTH_MEASURE( 1.000000000000000082E-05 ), #295, 'distance_accuracy_value', 'NONE');
#155 = CARTESIAN_POINT ( 'NONE',  ( -0.1082531754730547829, -0.1874999999999999722, 0.0000000000000000000 ) ) ;
#156 = AXIS2_PLACEMENT_3D ( 'NONE', #147, #224, #193 ) ;
#157 = SHAPE_DEFINITION_REPRESENTATION ( #141, #212 ) ;
#159 = ORIENTED_EDGE ( 'NONE', *, *, #164, .T. ) ;
#158 = CARTESIAN_POINT ( 'NONE',  ( -0.2165063509461097047, 3.211045840221350913E-17, 1.000000000000000000 ) ) ;
#160 = DIRECTION ( 'NONE',  ( 0.8660254037844384856, 0.5000000000000004441, -0.0000000000000000000 ) ) ;
#161 = CARTESIAN_POINT ( 'NONE',  ( 0.1082531754730549634, -0.1874999999999999167, 0.0000000000000000000 ) ) ;
#162 = ORIENTED_EDGE ( 'NONE', *, *, #21, .F. ) ;
#163 = EDGE_LOOP ( 'NONE', ( #260, #246, #117, #307 ) ) ;
#164 = EDGE_CURVE ( 'NONE', #277, #102, #22, .T. ) ;
#165 = DIRECTION ( 'NONE',  ( -0.0000000000000000000, -0.0000000000000000000, -1.000000000000000000 ) ) ;
#166 =( NAMED_UNIT ( * ) SI_UNIT ( $, .STERADIAN. ) SOLID_ANGLE_UNIT ( ) );
#167 = CARTESIAN_POINT ( 'NONE',  ( 0.1082531754730547829, 0.1875000000000000555, 0.0000000000000000000 ) ) ;
#168 = CARTESIAN_POINT ( 'NONE',  ( -0.2165063509461097047, 3.211045840221350913E-17, 1.000000000000000000 ) ) ;
#169 = CLOSED_SHELL ( 'NONE', ( #120, #69, #82, #38, #119, #64, #78, #98, #51 ) ) ;
#170 = DIRECTION ( 'NONE',  ( -0.5000000000000001110, 0.8660254037844385966, 0.0000000000000000000 ) ) ;
#171 = SURFACE_STYLE_USAGE ( .BOTH. , #71 ) ;
#172 = FACE_OUTER_BOUND ( 'NONE', #276, .T. ) ;
#173 = ORIENTED_EDGE ( 'NONE', *, *, #34, .T. ) ;
#174 = EDGE_CURVE ( 'NONE', #255, #118, #88, .T. ) ;
#175 =( LENGTH_UNIT ( ) NAMED_UNIT ( * ) SI_UNIT ( $, .METRE. ) );
#176 = ORIENTED_EDGE ( 'NONE', *, *, #263, .F. ) ;
#177 = LINE ( 'NONE', #270, #30 ) ;
#178 = DIRECTION ( 'NONE',  ( 1.000000000000000000, 0.0000000000000000000, 0.0000000000000000000 ) ) ;
#179 = ORIENTED_EDGE ( 'NONE', *, *, #174, .T. ) ;
#180 = EDGE_CURVE ( 'NONE', #26, #226, #17, .T. ) ;
#181 = CARTESIAN_POINT ( 'NONE',  ( 0.2165063509461097047, -7.084637897906329745E-17, 1.000000000000000000 ) ) ;
#182 = CARTESIAN_POINT ( 'NONE',  ( 0.1082531754730549634, -0.1874999999999999167, 1.000000000000000000 ) ) ;
#183 = LENGTH_MEASURE_WITH_UNIT ( LENGTH_MEASURE( 0.02539999999999999897 ), #15 );
#184 = EDGE_CURVE ( 'NONE', #231, #302, #2, .T. ) ;
#185 = CARTESIAN_POINT ( 'NONE',  ( -0.1082531754730547829, -0.1874999999999999722, 1.000000000000000000 ) ) ;
#186 = CARTESIAN_POINT ( 'NONE',  ( -0.1082531754730548107, 0.1875000000000000555, 1.000000000000000000 ) ) ;
#187 = EDGE_CURVE ( 'NONE', #277, #40, #214, .T. ) ;
#188 =( LENGTH_UNIT ( ) NAMED_UNIT ( * ) SI_UNIT ( $, .METRE. ) );
#189 =( CONVERSION_BASED_UNIT ( 'INCH', #79 ) LENGTH_UNIT ( ) NAMED_UNIT ( #101 ) );
#190 = CARTESIAN_POINT ( 'NONE',  ( 0.0000000000000000000, 0.0000000000000000000, 0.0000000000000000000 ) ) ;
#191 = CARTESIAN_POINT ( 'NONE',  ( 0.2165063509461097047, -7.084637897906329745E-17, 1.000000000000000000 ) ) ;
#192 =( GEOMETRIC_REPRESENTATION_CONTEXT ( 3 ) GLOBAL_UNCERTAINTY_ASSIGNED_CONTEXT ( ( #97 ) ) GLOBAL_UNIT_ASSIGNED_CONTEXT ( ( #305, #59, #292 ) ) REPRESENTATION_CONTEXT ( 'NONE', 'WORKASPACE' ) );
#193 = DIRECTION ( 'NONE',  ( -1.000000000000000000, 0.0000000000000000000, 0.0000000000000000000 ) ) ;
#194 = AXIS2_PLACEMENT_3D ( 'NONE', #28, #77, #132 ) ;
#195 = PRODUCT_DEFINITION ( 'UNKNOWN', '', #123, #50 ) ;
#196 = VERTEX_POINT ( 'NONE', #284 ) ;
#197 = VECTOR ( 'NONE', #47, 39.37007874015748143 ) ;
#198 = AXIS2_PLACEMENT_3D ( 'NONE', #190, #291, #258 ) ;
#199 = EDGE_LOOP ( 'NONE', ( #129, #48, #220, #248 ) ) ;
#200 = FILL_AREA_STYLE_COLOUR ( '', #204 ) ;
#201 = ORIENTED_EDGE ( 'NONE', *, *, #20, .T. ) ;
#202 = LENGTH_MEASURE_WITH_UNIT ( LENGTH_MEASURE( 0.02539999999999999897 ), #175 );
#203 = AXIS2_PLACEMENT_3D ( 'NONE', #310, #211, #245 ) ;
#204 = COLOUR_RGB ( '',1.000000000000000000, 1.000000000000000000, 1.000000000000000000 ) ;
#205 = FILL_AREA_STYLE_COLOUR ( '', #45 ) ;
#206 = CARTESIAN_POINT ( 'NONE',  ( 0.3937007874015748254, 0.0000000000000000000, 0.0000000000000000000 ) ) ;
#207 = CARTESIAN_POINT ( 'NONE',  ( 0.1082531754730547829, 0.1875000000000000555, 1.000000000000000000 ) ) ;
#208 = VECTOR ( 'NONE', #165, 39.37007874015748143 ) ;
#209 = DIRECTION ( 'NONE',  ( -1.000000000000000000, 0.0000000000000000000, 0.0000000000000000000 ) ) ;
#210 = SURFACE_SIDE_STYLE ('',( #49 ) ) ;
#211 = DIRECTION ( 'NONE',  ( 0.0000000000000000000, 0.0000000000000000000, 1.000000000000000000 ) ) ;
#212 = ADVANCED_BREP_SHAPE_REPRESENTATION ( 'am-3947-1000 375H x 1000IN Spacer', ( #137, #198 ), #192 ) ;
#213 = DIRECTION ( 'NONE',  ( -0.5000000000000002220, -0.8660254037844384856, 0.0000000000000000000 ) ) ;
#214 = LINE ( 'NONE', #261, #233 ) ;
#215 = PRODUCT_CONTEXT ( 'NONE', #244, 'mechanical' ) ;
#216 = PLANE ( 'NONE',  #25 ) ;
#217 = SURFACE_STYLE_FILL_AREA ( #89 ) ;
#218 = FACE_OUTER_BOUND ( 'NONE', #56, .T. ) ;
#219 = LINE ( 'NONE', #275, #124 ) ;
#220 = ORIENTED_EDGE ( 'NONE', *, *, #7, .T. ) ;
#221 = VERTEX_POINT ( 'NONE', #206 ) ;
#222 = CARTESIAN_POINT ( 'NONE',  ( 0.1082531754730549634, -0.1874999999999999167, 1.000000000000000000 ) ) ;
#223 = CARTESIAN_POINT ( 'NONE',  ( 0.1082531754730547829, 0.1875000000000000555, 1.000000000000000000 ) ) ;
#224 = DIRECTION ( 'NONE',  ( -0.0000000000000000000, -0.0000000000000000000, -1.000000000000000000 ) ) ;
#225 = CIRCLE ( 'NONE', #36, 0.3937007874015748254 ) ;
#226 = VERTEX_POINT ( 'NONE', #186 ) ;
#227 = CARTESIAN_POINT ( 'NONE',  ( -0.2165063509461097047, 3.211045840221350913E-17, 0.0000000000000000000 ) ) ;
#228 = DIRECTION ( 'NONE',  ( 0.5000000000000002220, 0.8660254037844384856, 0.0000000000000000000 ) ) ;
#229 = VECTOR ( 'NONE', #213, 39.37007874015749564 ) ;
#230 = ORIENTED_EDGE ( 'NONE', *, *, #309, .F. ) ;
#231 = VERTEX_POINT ( 'NONE', #12 ) ;
#232 = PRESENTATION_STYLE_ASSIGNMENT (( #171 ) ) ;
#233 = VECTOR ( 'NONE', #142, 39.37007874015748854 ) ;
#234 = CARTESIAN_POINT ( 'NONE',  ( -0.2165063509461097047, 3.211045840221350913E-17, 0.0000000000000000000 ) ) ;
#235 = DIRECTION ( 'NONE',  ( -1.000000000000000000, 0.0000000000000000000, 0.0000000000000000000 ) ) ;
#236 = VECTOR ( 'NONE', #27, 39.37007874015748143 ) ;
#237 = LINE ( 'NONE', #135, #197 ) ;
#238 = LINE ( 'NONE', #267, #110 ) ;
#239 = ORIENTED_EDGE ( 'NONE', *, *, #7, .F. ) ;
#240 =( NAMED_UNIT ( * ) PLANE_ANGLE_UNIT ( ) SI_UNIT ( $, .RADIAN. ) );
#241 = ORIENTED_EDGE ( 'NONE', *, *, #34, .F. ) ;
#242 = EDGE_LOOP ( 'NONE', ( #259, #264, #272, #179 ) ) ;
#243 = ORIENTED_EDGE ( 'NONE', *, *, #54, .F. ) ;
#244 = APPLICATION_CONTEXT ( 'automotive_design' ) ;
#245 = DIRECTION ( 'NONE',  ( 1.000000000000000000, 0.0000000000000000000, -0.0000000000000000000 ) ) ;
#246 = ORIENTED_EDGE ( 'NONE', *, *, #174, .F. ) ;
#247 = PRODUCT_RELATED_PRODUCT_CATEGORY ( 'part', '', ( #80 ) ) ;
#248 = ORIENTED_EDGE ( 'NONE', *, *, #46, .T. ) ;
#249 = EDGE_LOOP ( 'NONE', ( #230 ) ) ;
#250 = PRESENTATION_LAYER_ASSIGNMENT (  '', '', ( #145 ) ) ;
#251 = DIRECTION ( 'NONE',  ( 0.0000000000000000000, -0.0000000000000000000, -1.000000000000000000 ) ) ;
#252 = LINE ( 'NONE', #271, #112 ) ;
#253 = FACE_OUTER_BOUND ( 'NONE', #199, .T. ) ;
#254 = ORIENTED_EDGE ( 'NONE', *, *, #153, .F. ) ;
#255 = VERTEX_POINT ( 'NONE', #158 ) ;
#256 = DIRECTION ( 'NONE',  ( -0.0000000000000000000, -0.0000000000000000000, -1.000000000000000000 ) ) ;
#257 = ORIENTED_EDGE ( 'NONE', *, *, #281, .T. ) ;
#258 = DIRECTION ( 'NONE',  ( 1.000000000000000000, 0.0000000000000000000, 0.0000000000000000000 ) ) ;
#259 = ORIENTED_EDGE ( 'NONE', *, *, #86, .F. ) ;
#260 = ORIENTED_EDGE ( 'NONE', *, *, #70, .F. ) ;
#261 = CARTESIAN_POINT ( 'NONE',  ( 0.1082531754730549634, -0.1874999999999999167, 1.000000000000000000 ) ) ;
#262 = PLANE ( 'NONE',  #130 ) ;
#263 = EDGE_CURVE ( 'NONE', #99, #102, #134, .T. ) ;
#264 = ORIENTED_EDGE ( 'NONE', *, *, #281, .F. ) ;
#265 = ORIENTED_EDGE ( 'NONE', *, *, #70, .T. ) ;
#266 = PLANE ( 'NONE',  #53 ) ;
#267 = CARTESIAN_POINT ( 'NONE',  ( 0.2165063509461097047, -7.084637897906329745E-17, 0.0000000000000000000 ) ) ;
#268 = PLANE ( 'NONE',  #304 ) ;
#269 = DIRECTION ( 'NONE',  ( -0.5000000000000003331, 0.8660254037844383745, 0.0000000000000000000 ) ) ;
#270 = CARTESIAN_POINT ( 'NONE',  ( -0.1082531754730547829, -0.1874999999999999722, 1.000000000000000000 ) ) ;
#271 = CARTESIAN_POINT ( 'NONE',  ( 0.2165063509461097047, -7.084637897906329745E-17, 1.000000000000000000 ) ) ;
#272 = ORIENTED_EDGE ( 'NONE', *, *, #286, .T. ) ;
#273 = VECTOR ( 'NONE', #105, 39.37007874015748143 ) ;
#274 = ORIENTED_EDGE ( 'NONE', *, *, #91, .T. ) ;
#275 = CARTESIAN_POINT ( 'NONE',  ( -0.1082531754730548107, 0.1875000000000000555, 0.0000000000000000000 ) ) ;
#276 = EDGE_LOOP ( 'NONE', ( #144, #67, #126, #257 ) ) ;
#277 = VERTEX_POINT ( 'NONE', #182 ) ;
#278 = ORIENTED_EDGE ( 'NONE', *, *, #180, .F. ) ;
#279 = APPLICATION_CONTEXT ( 'automotive_design' ) ;
#280 = ORIENTED_EDGE ( 'NONE', *, *, #184, .T. ) ;
#281 = EDGE_CURVE ( 'NONE', #226, #302, #237, .T. ) ;
#282 = ORIENTED_EDGE ( 'NONE', *, *, #86, .T. ) ;
#283 = DIRECTION ( 'NONE',  ( 1.000000000000000000, 0.0000000000000000000, -0.0000000000000000000 ) ) ;
#284 = CARTESIAN_POINT ( 'NONE',  ( 0.3937007874015748254, 0.0000000000000000000, 1.000000000000000000 ) ) ;
#285 = FACE_OUTER_BOUND ( 'NONE', #242, .T. ) ;
#286 = EDGE_CURVE ( 'NONE', #226, #255, #31, .T. ) ;
#287 = CARTESIAN_POINT ( 'NONE',  ( 0.1082531754730547829, 0.1875000000000000555, 1.000000000000000000 ) ) ;
#288 = CARTESIAN_POINT ( 'NONE',  ( -0.1082531754730547829, -0.1874999999999999722, 1.000000000000000000 ) ) ;
#289 = FACE_OUTER_BOUND ( 'NONE', #131, .T. ) ;
#290 = VERTEX_POINT ( 'NONE', #104 ) ;
#291 = DIRECTION ( 'NONE',  ( 0.0000000000000000000, 0.0000000000000000000, 1.000000000000000000 ) ) ;
#292 =( NAMED_UNIT ( * ) SI_UNIT ( $, .STERADIAN. ) SOLID_ANGLE_UNIT ( ) );
#293 = CYLINDRICAL_SURFACE ( 'NONE', #156, 0.3937007874015748254 ) ;
#294 = EDGE_LOOP ( 'NONE', ( #83, #14, #133, #201 ) ) ;
#295 =( CONVERSION_BASED_UNIT ( 'INCH', #183 ) LENGTH_UNIT ( ) NAMED_UNIT ( #114 ) );
#296 = DIRECTION ( 'NONE',  ( 0.5000000000000003331, -0.8660254037844383745, 0.0000000000000000000 ) ) ;
#297 = LINE ( 'NONE', #6, #92 ) ;
#298 = EDGE_LOOP ( 'NONE', ( #176, #254, #173, #159 ) ) ;
#299 = EDGE_LOOP ( 'NONE', ( #274, #63, #280, #282, #265, #76 ) ) ;
#300 = DIRECTION ( 'NONE',  ( -0.5000000000000001110, 0.8660254037844385966, 0.0000000000000000000 ) ) ;
#301 = PRESENTATION_STYLE_ASSIGNMENT (( #41 ) ) ;
#302 = VERTEX_POINT ( 'NONE', #43 ) ;
#303 = FACE_BOUND ( 'NONE', #151, .T. ) ;
#304 = AXIS2_PLACEMENT_3D ( 'NONE', #185, #61, #35 ) ;
#305 =( CONVERSION_BASED_UNIT ( 'INCH', #202 ) LENGTH_UNIT ( ) NAMED_UNIT ( #100 ) );
#306 = FACE_OUTER_BOUND ( 'NONE', #163, .T. ) ;
#307 = ORIENTED_EDGE ( 'NONE', *, *, #153, .T. ) ;
#308 = VECTOR ( 'NONE', #127, 39.37007874015748143 ) ;
#309 = EDGE_CURVE ( 'NONE', #221, #221, #225, .T. ) ;
#310 = CARTESIAN_POINT ( 'NONE',  ( 0.0000000000000000000, 0.0000000000000000000, 1.000000000000000000 ) ) ;
#311 = CARTESIAN_POINT ( 'NONE',  ( 0.1082531754730549634, -0.1874999999999999167, 1.000000000000000000 ) ) ;
ENDSEC;
END-ISO-10303-21;
