ISO-10303-21;
HEADER;
FILE_DESCRIPTION (( 'STEP AP214' ),
    '1' );
FILE_NAME ('am-3947-063 375H x 063IN Spacer.STEP',
    '2018-09-24T20:50:54',
    ( '' ),
    ( '' ),
    'SwSTEP 2.0',
    'SolidWorks 2018',
    '' );
FILE_SCHEMA (( 'AUTOMOTIVE_DESIGN' ));
ENDSEC;

DATA;
#1 = EDGE_LOOP ( 'NONE', ( #159, #106, #91, #75 ) ) ;
#2 =( LENGTH_UNIT ( ) NAMED_UNIT ( * ) SI_UNIT ( $, .METRE. ) );
#3 = DIRECTION ( 'NONE',  ( -0.0000000000000000000, -0.0000000000000000000, -1.000000000000000000 ) ) ;
#4 = EDGE_LOOP ( 'NONE', ( #74 ) ) ;
#5 = LINE ( 'NONE', #160, #93 ) ;
#6 = PLANE ( 'NONE',  #220 ) ;
#7 = EDGE_CURVE ( 'NONE', #214, #171, #22, .T. ) ;
#8 = LINE ( 'NONE', #233, #206 ) ;
#9 = LINE ( 'NONE', #12, #35 ) ;
#10 = CARTESIAN_POINT ( 'NONE',  ( 0.1082531754730549634, -0.1874999999999999167, 0.0000000000000000000 ) ) ;
#11 = CARTESIAN_POINT ( 'NONE',  ( 0.1082531754730547829, 0.1875000000000000555, 0.06250000000000000000 ) ) ;
#12 = CARTESIAN_POINT ( 'NONE',  ( 0.1082531754730549634, -0.1874999999999999167, 0.06250000000000000000 ) ) ;
#13 = LINE ( 'NONE', #243, #270 ) ;
#14 = EDGE_CURVE ( 'NONE', #249, #289, #135, .T. ) ;
#15 = ORIENTED_EDGE ( 'NONE', *, *, #37, .F. ) ;
#16 = VECTOR ( 'NONE', #219, 39.37007874015749564 ) ;
#17 = DIRECTION ( 'NONE',  ( -1.000000000000000000, 0.0000000000000000000, 0.0000000000000000000 ) ) ;
#18 = EDGE_LOOP ( 'NONE', ( #128 ) ) ;
#19 = DIRECTION ( 'NONE',  ( 0.5000000000000001110, -0.8660254037844385966, 0.0000000000000000000 ) ) ;
#20 = DIRECTION ( 'NONE',  ( -0.5000000000000001110, 0.8660254037844385966, 0.0000000000000000000 ) ) ;
#21 = LENGTH_MEASURE_WITH_UNIT ( LENGTH_MEASURE( 0.02539999999999999897 ), #293 );
#22 = LINE ( 'NONE', #188, #151 ) ;
#23 = DIRECTION ( 'NONE',  ( 0.5000000000000003331, -0.8660254037844383745, 0.0000000000000000000 ) ) ;
#24 = VECTOR ( 'NONE', #83, 39.37007874015749564 ) ;
#25 = ORIENTED_EDGE ( 'NONE', *, *, #276, .T. ) ;
#26 = CIRCLE ( 'NONE', #140, 0.3937007874015748254 ) ;
#27 = ADVANCED_BREP_SHAPE_REPRESENTATION ( 'am-3947-063 375H x 063IN Spacer', ( #67, #70 ), #113 ) ;
#28 = DIRECTION ( 'NONE',  ( 0.8660254037844384856, 0.5000000000000004441, -0.0000000000000000000 ) ) ;
#29 = EDGE_LOOP ( 'NONE', ( #68 ) ) ;
#30 = DIRECTION ( 'NONE',  ( 0.0000000000000000000, 0.0000000000000000000, 1.000000000000000000 ) ) ;
#31 = ORIENTED_EDGE ( 'NONE', *, *, #184, .T. ) ;
#32 = DIRECTION ( 'NONE',  ( 0.0000000000000000000, 0.0000000000000000000, 1.000000000000000000 ) ) ;
#33 = FACE_BOUND ( 'NONE', #283, .T. ) ;
#34 = CARTESIAN_POINT ( 'NONE',  ( 0.2165063509461097047, -7.084637897906329745E-17, 0.0000000000000000000 ) ) ;
#35 = VECTOR ( 'NONE', #115, 39.37007874015748854 ) ;
#36 = EDGE_CURVE ( 'NONE', #297, #214, #213, .T. ) ;
#37 = EDGE_CURVE ( 'NONE', #192, #192, #26, .T. ) ;
#38 = PLANE ( 'NONE',  #119 ) ;
#39 = LINE ( 'NONE', #110, #88 ) ;
#40 = CARTESIAN_POINT ( 'NONE',  ( 0.2165063509461097047, -7.084637897906329745E-17, 0.06250000000000000000 ) ) ;
#41 = FILL_AREA_STYLE ('',( #201 ) ) ;
#42 = DIRECTION ( 'NONE',  ( 1.000000000000000000, 0.0000000000000000000, 0.0000000000000000000 ) ) ;
#43 = AXIS2_PLACEMENT_3D ( 'NONE', #307, #228, #89 ) ;
#44 = PRODUCT_CONTEXT ( 'NONE', #53, 'mechanical' ) ;
#45 = DIRECTION ( 'NONE',  ( -0.5000000000000001110, 0.8660254037844385966, 0.0000000000000000000 ) ) ;
#46 = EDGE_LOOP ( 'NONE', ( #15 ) ) ;
#47 = AXIS2_PLACEMENT_3D ( 'NONE', #174, #163, #42 ) ;
#48 = SURFACE_STYLE_USAGE ( .BOTH. , #296 ) ;
#49 = VERTEX_POINT ( 'NONE', #84 ) ;
#50 = MECHANICAL_DESIGN_GEOMETRIC_PRESENTATION_REPRESENTATION (  '', ( #80 ), #175 ) ;
#51 = FILL_AREA_STYLE ('',( #155 ) ) ;
#52 = PRODUCT_RELATED_PRODUCT_CATEGORY ( 'part', '', ( #82 ) ) ;
#53 = APPLICATION_CONTEXT ( 'automotive_design' ) ;
#54 = LINE ( 'NONE', #61, #24 ) ;
#55 = PRODUCT_DEFINITION_FORMATION_WITH_SPECIFIED_SOURCE ( 'ANY', '', #82, .NOT_KNOWN. ) ;
#56 = CARTESIAN_POINT ( 'NONE',  ( -0.1082531754730547829, -0.1874999999999999722, 0.06250000000000000000 ) ) ;
#57 = CARTESIAN_POINT ( 'NONE',  ( 0.0000000000000000000, 0.0000000000000000000, 0.06250000000000000000 ) ) ;
#58 = ORIENTED_EDGE ( 'NONE', *, *, #194, .T. ) ;
#59 = PRESENTATION_LAYER_ASSIGNMENT (  '', '', ( #148 ) ) ;
#60 =( NAMED_UNIT ( * ) PLANE_ANGLE_UNIT ( ) SI_UNIT ( $, .RADIAN. ) );
#61 = CARTESIAN_POINT ( 'NONE',  ( -0.1082531754730548107, 0.1875000000000000555, 0.06250000000000000000 ) ) ;
#62 = FACE_OUTER_BOUND ( 'NONE', #221, .T. ) ;
#63 = CARTESIAN_POINT ( 'NONE',  ( -0.1082531754730547829, -0.1874999999999999722, 0.0000000000000000000 ) ) ;
#64 = PRODUCT_DEFINITION ( 'UNKNOWN', '', #55, #66 ) ;
#65 = CARTESIAN_POINT ( 'NONE',  ( 0.2165063509461097047, -7.084637897906329745E-17, 0.06250000000000000000 ) ) ;
#66 = PRODUCT_DEFINITION_CONTEXT ( 'detailed design', #103, 'design' ) ;
#67 = MANIFOLD_SOLID_BREP ( 'Boss-Extrude1', #266 ) ;
#68 = ORIENTED_EDGE ( 'NONE', *, *, #182, .F. ) ;
#69 = CARTESIAN_POINT ( 'NONE',  ( -0.1082531754730548107, 0.1875000000000000555, 0.0000000000000000000 ) ) ;
#70 = AXIS2_PLACEMENT_3D ( 'NONE', #308, #77, #226 ) ;
#71 = FACE_OUTER_BOUND ( 'NONE', #87, .T. ) ;
#72 = VERTEX_POINT ( 'NONE', #268 ) ;
#73 = ORIENTED_EDGE ( 'NONE', *, *, #141, .F. ) ;
#74 = ORIENTED_EDGE ( 'NONE', *, *, #182, .T. ) ;
#75 = ORIENTED_EDGE ( 'NONE', *, *, #90, .T. ) ;
#76 = DIMENSIONAL_EXPONENTS ( 1.000000000000000000, 0.0000000000000000000, 0.0000000000000000000, 0.0000000000000000000, 0.0000000000000000000, 0.0000000000000000000, 0.0000000000000000000 ) ;
#77 = DIRECTION ( 'NONE',  ( 0.0000000000000000000, 0.0000000000000000000, 1.000000000000000000 ) ) ;
#78 =( NAMED_UNIT ( * ) PLANE_ANGLE_UNIT ( ) SI_UNIT ( $, .RADIAN. ) );
#79 = DIRECTION ( 'NONE',  ( 1.000000000000000000, 0.0000000000000000000, -0.0000000000000000000 ) ) ;
#80 = STYLED_ITEM ( 'NONE', ( #252 ), #27 ) ;
#81 = ORIENTED_EDGE ( 'NONE', *, *, #7, .F. ) ;
#82 = PRODUCT ( 'am-3947-063 375H x 063IN Spacer', 'am-3947-063 375H x 063IN Spacer', '', ( #44 ) ) ;
#83 = DIRECTION ( 'NONE',  ( -0.5000000000000002220, -0.8660254037844384856, 0.0000000000000000000 ) ) ;
#84 = CARTESIAN_POINT ( 'NONE',  ( 0.1082531754730549634, -0.1874999999999999167, 0.0000000000000000000 ) ) ;
#85 = LINE ( 'NONE', #69, #16 ) ;
#86 = CARTESIAN_POINT ( 'NONE',  ( -0.1082531754730548107, 0.1875000000000000555, 0.0000000000000000000 ) ) ;
#87 = EDGE_LOOP ( 'NONE', ( #105, #223, #301, #58 ) ) ;
#88 = VECTOR ( 'NONE', #104, 39.37007874015748143 ) ;
#89 = DIRECTION ( 'NONE',  ( -1.000000000000000000, 0.0000000000000000000, 0.0000000000000000000 ) ) ;
#90 = EDGE_CURVE ( 'NONE', #289, #49, #102, .T. ) ;
#91 = ORIENTED_EDGE ( 'NONE', *, *, #14, .T. ) ;
#92 = PLANE ( 'NONE',  #260 ) ;
#93 = VECTOR ( 'NONE', #273, 39.37007874015748143 ) ;
#94 = DIRECTION ( 'NONE',  ( 0.0000000000000000000, -0.0000000000000000000, -1.000000000000000000 ) ) ;
#95 = DIRECTION ( 'NONE',  ( -0.8660254037844385966, -0.5000000000000001110, 0.0000000000000000000 ) ) ;
#96 = EDGE_CURVE ( 'NONE', #289, #181, #9, .T. ) ;
#97 = DIRECTION ( 'NONE',  ( -0.0000000000000000000, -0.0000000000000000000, -1.000000000000000000 ) ) ;
#98 = UNCERTAINTY_MEASURE_WITH_UNIT (LENGTH_MEASURE( 1.000000000000000082E-05 ), #124, 'distance_accuracy_value', 'NONE');
#99 = EDGE_LOOP ( 'NONE', ( #241, #73, #185, #250 ) ) ;
#100 = CARTESIAN_POINT ( 'NONE',  ( -0.1082531754730547829, -0.1874999999999999722, 0.06250000000000000000 ) ) ;
#101 = EDGE_CURVE ( 'NONE', #181, #304, #280, .T. ) ;
#102 = LINE ( 'NONE', #286, #256 ) ;
#103 = APPLICATION_CONTEXT ( 'automotive_design' ) ;
#104 = DIRECTION ( 'NONE',  ( -0.0000000000000000000, -0.0000000000000000000, -1.000000000000000000 ) ) ;
#105 = ORIENTED_EDGE ( 'NONE', *, *, #158, .F. ) ;
#106 = ORIENTED_EDGE ( 'NONE', *, *, #109, .F. ) ;
#107 = CARTESIAN_POINT ( 'NONE',  ( -0.1082531754730547829, -0.1874999999999999722, 0.0000000000000000000 ) ) ;
#108 = PRESENTATION_STYLE_ASSIGNMENT (( #48 ) ) ;
#109 = EDGE_CURVE ( 'NONE', #249, #265, #39, .T. ) ;
#110 = CARTESIAN_POINT ( 'NONE',  ( -0.1082531754730547829, -0.1874999999999999722, 0.06250000000000000000 ) ) ;
#111 = EDGE_CURVE ( 'NONE', #288, #249, #5, .T. ) ;
#112 = VECTOR ( 'NONE', #218, 39.37007874015748143 ) ;
#113 =( GEOMETRIC_REPRESENTATION_CONTEXT ( 3 ) GLOBAL_UNCERTAINTY_ASSIGNED_CONTEXT ( ( #189 ) ) GLOBAL_UNIT_ASSIGNED_CONTEXT ( ( #146, #78, #306 ) ) REPRESENTATION_CONTEXT ( 'NONE', 'WORKASPACE' ) );
#114 = CARTESIAN_POINT ( 'NONE',  ( 0.1082531754730549634, -0.1874999999999999167, 0.06250000000000000000 ) ) ;
#115 = DIRECTION ( 'NONE',  ( 0.5000000000000000000, 0.8660254037844385966, 0.0000000000000000000 ) ) ;
#116 = CARTESIAN_POINT ( 'NONE',  ( 0.0000000000000000000, 0.0000000000000000000, 0.06250000000000000000 ) ) ;
#117 = LINE ( 'NONE', #302, #112 ) ;
#118 = ORIENTED_EDGE ( 'NONE', *, *, #184, .F. ) ;
#119 = AXIS2_PLACEMENT_3D ( 'NONE', #114, #215, #162 ) ;
#120 = APPLICATION_PROTOCOL_DEFINITION ( 'draft international standard', 'automotive_design', 1998, #53 ) ;
#121 = ORIENTED_EDGE ( 'NONE', *, *, #190, .T. ) ;
#122 = DIMENSIONAL_EXPONENTS ( 1.000000000000000000, 0.0000000000000000000, 0.0000000000000000000, 0.0000000000000000000, 0.0000000000000000000, 0.0000000000000000000, 0.0000000000000000000 ) ;
#123 = DIMENSIONAL_EXPONENTS ( 1.000000000000000000, 0.0000000000000000000, 0.0000000000000000000, 0.0000000000000000000, 0.0000000000000000000, 0.0000000000000000000, 0.0000000000000000000 ) ;
#124 =( CONVERSION_BASED_UNIT ( 'INCH', #143 ) LENGTH_UNIT ( ) NAMED_UNIT ( #76 ) );
#125 = LINE ( 'NONE', #63, #150 ) ;
#126 = DIRECTION ( 'NONE',  ( 0.0000000000000000000, -1.000000000000000000, 0.0000000000000000000 ) ) ;
#127 = DIRECTION ( 'NONE',  ( 1.000000000000000000, 0.0000000000000000000, 0.0000000000000000000 ) ) ;
#128 = ORIENTED_EDGE ( 'NONE', *, *, #37, .T. ) ;
#129 = DIRECTION ( 'NONE',  ( 0.5000000000000002220, 0.8660254037844384856, 0.0000000000000000000 ) ) ;
#130 = LINE ( 'NONE', #11, #152 ) ;
#131 = ORIENTED_EDGE ( 'NONE', *, *, #111, .F. ) ;
#132 = EDGE_CURVE ( 'NONE', #246, #265, #210, .T. ) ;
#133 = DIRECTION ( 'NONE',  ( -3.154466349054401235E-16, 1.000000000000000000, 0.0000000000000000000 ) ) ;
#134 = FACE_OUTER_BOUND ( 'NONE', #4, .T. ) ;
#135 = LINE ( 'NONE', #56, #156 ) ;
#136 =( NAMED_UNIT ( * ) PLANE_ANGLE_UNIT ( ) SI_UNIT ( $, .RADIAN. ) );
#137 = DIRECTION ( 'NONE',  ( 1.000000000000000000, 3.154466349054401728E-16, 0.0000000000000000000 ) ) ;
#138 = DIRECTION ( 'NONE',  ( -0.0000000000000000000, -0.0000000000000000000, -1.000000000000000000 ) ) ;
#139 = EDGE_CURVE ( 'NONE', #304, #214, #117, .T. ) ;
#140 = AXIS2_PLACEMENT_3D ( 'NONE', #57, #30, #127 ) ;
#141 = EDGE_CURVE ( 'NONE', #181, #297, #13, .T. ) ;
#142 = ADVANCED_FACE ( 'NONE', ( #166 ), #38, .T. ) ;
#143 = LENGTH_MEASURE_WITH_UNIT ( LENGTH_MEASURE( 0.02539999999999999897 ), #292 );
#144 = ADVANCED_FACE ( 'NONE', ( #165, #134 ), #202, .T. ) ;
#145 = FACE_OUTER_BOUND ( 'NONE', #1, .T. ) ;
#146 =( CONVERSION_BASED_UNIT ( 'INCH', #264 ) LENGTH_UNIT ( ) NAMED_UNIT ( #123 ) );
#147 = ADVANCED_FACE ( 'NONE', ( #153, #236 ), #6, .F. ) ;
#148 = STYLED_ITEM ( 'NONE', ( #108 ), #67 ) ;
#149 = CARTESIAN_POINT ( 'NONE',  ( 0.3937007874015748254, 0.0000000000000000000, 0.0000000000000000000 ) ) ;
#150 = VECTOR ( 'NONE', #137, 39.37007874015748143 ) ;
#151 = VECTOR ( 'NONE', #242, 39.37007874015748143 ) ;
#152 = VECTOR ( 'NONE', #17, 39.37007874015748143 ) ;
#153 = FACE_OUTER_BOUND ( 'NONE', #29, .T. ) ;
#154 = CIRCLE ( 'NONE', #47, 0.3937007874015748254 ) ;
#155 = FILL_AREA_STYLE_COLOUR ( '', #300 ) ;
#156 = VECTOR ( 'NONE', #227, 39.37007874015748143 ) ;
#157 = PRESENTATION_LAYER_ASSIGNMENT (  '', '', ( #80 ) ) ;
#158 = EDGE_CURVE ( 'NONE', #171, #246, #85, .T. ) ;
#159 = ORIENTED_EDGE ( 'NONE', *, *, #190, .F. ) ;
#160 = CARTESIAN_POINT ( 'NONE',  ( -0.2165063509461097047, 3.211045840221350913E-17, 0.06250000000000000000 ) ) ;
#161 = EDGE_LOOP ( 'NONE', ( #200, #229, #193, #245, #299, #121 ) ) ;
#162 = DIRECTION ( 'NONE',  ( -0.5000000000000000000, -0.8660254037844385966, 0.0000000000000000000 ) ) ;
#163 = DIRECTION ( 'NONE',  ( 0.0000000000000000000, 0.0000000000000000000, 1.000000000000000000 ) ) ;
#164 = CARTESIAN_POINT ( 'NONE',  ( -0.2165063509461097047, 3.211045840221350913E-17, 0.0000000000000000000 ) ) ;
#165 = FACE_OUTER_BOUND ( 'NONE', #46, .T. ) ;
#166 = FACE_OUTER_BOUND ( 'NONE', #222, .T. ) ;
#167 = CARTESIAN_POINT ( 'NONE',  ( 0.2165063509461097047, -7.084637897906329745E-17, 0.0000000000000000000 ) ) ;
#168 = AXIS2_PLACEMENT_3D ( 'NONE', #244, #133, #187 ) ;
#169 = ADVANCED_FACE ( 'NONE', ( #247 ), #92, .T. ) ;
#170 = PLANE ( 'NONE',  #282 ) ;
#171 = VERTEX_POINT ( 'NONE', #86 ) ;
#172 = LINE ( 'NONE', #10, #183 ) ;
#173 = ADVANCED_FACE ( 'NONE', ( #269, #33 ), #208, .T. ) ;
#174 = CARTESIAN_POINT ( 'NONE',  ( 0.0000000000000000000, 0.0000000000000000000, 0.0000000000000000000 ) ) ;
#175 =( GEOMETRIC_REPRESENTATION_CONTEXT ( 3 ) GLOBAL_UNCERTAINTY_ASSIGNED_CONTEXT ( ( #98 ) ) GLOBAL_UNIT_ASSIGNED_CONTEXT ( ( #124, #136, #251 ) ) REPRESENTATION_CONTEXT ( 'NONE', 'WORKASPACE' ) );
#176 = ADVANCED_FACE ( 'NONE', ( #274 ), #262, .T. ) ;
#177 = CARTESIAN_POINT ( 'NONE',  ( 0.1082531754730547829, 0.1875000000000000555, 0.06250000000000000000 ) ) ;
#178 = ORIENTED_EDGE ( 'NONE', *, *, #194, .F. ) ;
#179 = DIRECTION ( 'NONE',  ( -0.0000000000000000000, -0.0000000000000000000, -1.000000000000000000 ) ) ;
#180 = SURFACE_SIDE_STYLE ('',( #298 ) ) ;
#181 = VERTEX_POINT ( 'NONE', #65 ) ;
#182 = EDGE_CURVE ( 'NONE', #311, #311, #154, .T. ) ;
#183 = VECTOR ( 'NONE', #209, 39.37007874015748854 ) ;
#184 = EDGE_CURVE ( 'NONE', #304, #72, #130, .T. ) ;
#185 = ORIENTED_EDGE ( 'NONE', *, *, #101, .T. ) ;
#186 = UNCERTAINTY_MEASURE_WITH_UNIT (LENGTH_MEASURE( 1.000000000000000082E-05 ), #295, 'distance_accuracy_value', 'NONE');
#187 = DIRECTION ( 'NONE',  ( -1.000000000000000000, -3.154466349054401235E-16, 0.0000000000000000000 ) ) ;
#188 = CARTESIAN_POINT ( 'NONE',  ( 0.1082531754730547829, 0.1875000000000000555, 0.0000000000000000000 ) ) ;
#189 = UNCERTAINTY_MEASURE_WITH_UNIT (LENGTH_MEASURE( 1.000000000000000082E-05 ), #146, 'distance_accuracy_value', 'NONE');
#190 = EDGE_CURVE ( 'NONE', #265, #49, #125, .T. ) ;
#191 = CARTESIAN_POINT ( 'NONE',  ( -0.2165063509461097047, 3.211045840221350913E-17, 0.06250000000000000000 ) ) ;
#192 = VERTEX_POINT ( 'NONE', #261 ) ;
#193 = ORIENTED_EDGE ( 'NONE', *, *, #7, .T. ) ;
#194 = EDGE_CURVE ( 'NONE', #288, #246, #8, .T. ) ;
#195 = ORIENTED_EDGE ( 'NONE', *, *, #132, .F. ) ;
#196 = ADVANCED_FACE ( 'NONE', ( #71 ), #170, .T. ) ;
#197 = ADVANCED_FACE ( 'NONE', ( #145 ), #290, .T. ) ;
#198 = SURFACE_STYLE_USAGE ( .BOTH. , #180 ) ;
#199 = ADVANCED_FACE ( 'NONE', ( #62 ), #294, .T. ) ;
#200 = ORIENTED_EDGE ( 'NONE', *, *, #248, .T. ) ;
#201 = FILL_AREA_STYLE_COLOUR ( '', #281 ) ;
#202 = CYLINDRICAL_SURFACE ( 'NONE', #43, 0.3937007874015748254 ) ;
#203 = CARTESIAN_POINT ( 'NONE',  ( -0.2165063509461097047, 3.211045840221350913E-17, 0.0000000000000000000 ) ) ;
#204 = DIRECTION ( 'NONE',  ( -0.5000000000000003331, 0.8660254037844383745, 0.0000000000000000000 ) ) ;
#205 = ORIENTED_EDGE ( 'NONE', *, *, #96, .T. ) ;
#206 = VECTOR ( 'NONE', #97, 39.37007874015748143 ) ;
#207 = ORIENTED_EDGE ( 'NONE', *, *, #101, .F. ) ;
#208 = PLANE ( 'NONE',  #291 ) ;
#209 = DIRECTION ( 'NONE',  ( 0.5000000000000000000, 0.8660254037844385966, 0.0000000000000000000 ) ) ;
#210 = LINE ( 'NONE', #203, #279 ) ;
#211 = MECHANICAL_DESIGN_GEOMETRIC_PRESENTATION_REPRESENTATION (  '', ( #148 ), #225 ) ;
#212 = ORIENTED_EDGE ( 'NONE', *, *, #96, .F. ) ;
#213 = LINE ( 'NONE', #167, #278 ) ;
#214 = VERTEX_POINT ( 'NONE', #277 ) ;
#215 = DIRECTION ( 'NONE',  ( -0.8660254037844387076, 0.5000000000000001110, 0.0000000000000000000 ) ) ;
#216 = APPLICATION_PROTOCOL_DEFINITION ( 'draft international standard', 'automotive_design', 1998, #103 ) ;
#217 = LINE ( 'NONE', #230, #310 ) ;
#218 = DIRECTION ( 'NONE',  ( -0.0000000000000000000, -0.0000000000000000000, -1.000000000000000000 ) ) ;
#219 = DIRECTION ( 'NONE',  ( -0.5000000000000002220, -0.8660254037844384856, 0.0000000000000000000 ) ) ;
#220 = AXIS2_PLACEMENT_3D ( 'NONE', #284, #275, #79 ) ;
#221 = EDGE_LOOP ( 'NONE', ( #195, #178, #224, #267 ) ) ;
#222 = EDGE_LOOP ( 'NONE', ( #255, #240, #205, #258 ) ) ;
#223 = ORIENTED_EDGE ( 'NONE', *, *, #276, .F. ) ;
#224 = ORIENTED_EDGE ( 'NONE', *, *, #111, .T. ) ;
#225 =( GEOMETRIC_REPRESENTATION_CONTEXT ( 3 ) GLOBAL_UNCERTAINTY_ASSIGNED_CONTEXT ( ( #186 ) ) GLOBAL_UNIT_ASSIGNED_CONTEXT ( ( #295, #60, #254 ) ) REPRESENTATION_CONTEXT ( 'NONE', 'WORKASPACE' ) );
#226 = DIRECTION ( 'NONE',  ( 1.000000000000000000, 0.0000000000000000000, 0.0000000000000000000 ) ) ;
#227 = DIRECTION ( 'NONE',  ( 1.000000000000000000, 3.154466349054401728E-16, 0.0000000000000000000 ) ) ;
#228 = DIRECTION ( 'NONE',  ( -0.0000000000000000000, -0.0000000000000000000, -1.000000000000000000 ) ) ;
#229 = ORIENTED_EDGE ( 'NONE', *, *, #36, .T. ) ;
#230 = CARTESIAN_POINT ( 'NONE',  ( -0.1082531754730548107, 0.1875000000000000555, 0.06250000000000000000 ) ) ;
#231 = DIRECTION ( 'NONE',  ( 0.8660254037844385966, -0.5000000000000003331, 0.0000000000000000000 ) ) ;
#232 = EDGE_CURVE ( 'NONE', #72, #288, #54, .T. ) ;
#233 = CARTESIAN_POINT ( 'NONE',  ( -0.2165063509461097047, 3.211045840221350913E-17, 0.06250000000000000000 ) ) ;
#234 = ORIENTED_EDGE ( 'NONE', *, *, #232, .F. ) ;
#235 = DIRECTION ( 'NONE',  ( 1.000000000000000000, 0.0000000000000000000, -0.0000000000000000000 ) ) ;
#236 = FACE_BOUND ( 'NONE', #161, .T. ) ;
#237 = CARTESIAN_POINT ( 'NONE',  ( -0.2165063509461097047, 3.211045840221350913E-17, 0.06250000000000000000 ) ) ;
#238 = AXIS2_PLACEMENT_3D ( 'NONE', #191, #28, #204 ) ;
#239 = PRODUCT_DEFINITION_SHAPE ( 'NONE', 'NONE',  #64 ) ;
#240 = ORIENTED_EDGE ( 'NONE', *, *, #90, .F. ) ;
#241 = ORIENTED_EDGE ( 'NONE', *, *, #36, .F. ) ;
#242 = DIRECTION ( 'NONE',  ( -1.000000000000000000, 0.0000000000000000000, 0.0000000000000000000 ) ) ;
#243 = CARTESIAN_POINT ( 'NONE',  ( 0.2165063509461097047, -7.084637897906329745E-17, 0.06250000000000000000 ) ) ;
#244 = CARTESIAN_POINT ( 'NONE',  ( -0.1082531754730547829, -0.1874999999999999722, 0.06250000000000000000 ) ) ;
#245 = ORIENTED_EDGE ( 'NONE', *, *, #158, .T. ) ;
#246 = VERTEX_POINT ( 'NONE', #164 ) ;
#247 = FACE_OUTER_BOUND ( 'NONE', #99, .T. ) ;
#248 = EDGE_CURVE ( 'NONE', #49, #297, #172, .T. ) ;
#249 = VERTEX_POINT ( 'NONE', #100 ) ;
#250 = ORIENTED_EDGE ( 'NONE', *, *, #139, .T. ) ;
#251 =( NAMED_UNIT ( * ) SI_UNIT ( $, .STERADIAN. ) SOLID_ANGLE_UNIT ( ) );
#252 = PRESENTATION_STYLE_ASSIGNMENT (( #198 ) ) ;
#253 = CARTESIAN_POINT ( 'NONE',  ( 0.1082531754730549634, -0.1874999999999999167, 0.06250000000000000000 ) ) ;
#254 =( NAMED_UNIT ( * ) SI_UNIT ( $, .STERADIAN. ) SOLID_ANGLE_UNIT ( ) );
#255 = ORIENTED_EDGE ( 'NONE', *, *, #248, .F. ) ;
#256 = VECTOR ( 'NONE', #179, 39.37007874015748143 ) ;
#257 = ORIENTED_EDGE ( 'NONE', *, *, #14, .F. ) ;
#258 = ORIENTED_EDGE ( 'NONE', *, *, #141, .T. ) ;
#259 = SHAPE_DEFINITION_REPRESENTATION ( #239, #27 ) ;
#260 = AXIS2_PLACEMENT_3D ( 'NONE', #40, #95, #19 ) ;
#261 = CARTESIAN_POINT ( 'NONE',  ( 0.3937007874015748254, 0.0000000000000000000, 0.06250000000000000000 ) ) ;
#262 = PLANE ( 'NONE',  #305 ) ;
#263 = EDGE_LOOP ( 'NONE', ( #81, #309, #31, #25 ) ) ;
#264 = LENGTH_MEASURE_WITH_UNIT ( LENGTH_MEASURE( 0.02539999999999999897 ), #2 );
#265 = VERTEX_POINT ( 'NONE', #107 ) ;
#266 = CLOSED_SHELL ( 'NONE', ( #173, #147, #144, #142, #169, #176, #196, #199, #197 ) ) ;
#267 = ORIENTED_EDGE ( 'NONE', *, *, #109, .T. ) ;
#268 = CARTESIAN_POINT ( 'NONE',  ( -0.1082531754730548107, 0.1875000000000000555, 0.06250000000000000000 ) ) ;
#269 = FACE_OUTER_BOUND ( 'NONE', #18, .T. ) ;
#270 = VECTOR ( 'NONE', #138, 39.37007874015748143 ) ;
#271 = CARTESIAN_POINT ( 'NONE',  ( 0.2165063509461097047, -7.084637897906329745E-17, 0.06250000000000000000 ) ) ;
#272 = CARTESIAN_POINT ( 'NONE',  ( 0.1082531754730547829, 0.1875000000000000555, 0.06250000000000000000 ) ) ;
#273 = DIRECTION ( 'NONE',  ( 0.5000000000000003331, -0.8660254037844383745, 0.0000000000000000000 ) ) ;
#274 = FACE_OUTER_BOUND ( 'NONE', #263, .T. ) ;
#275 = DIRECTION ( 'NONE',  ( 0.0000000000000000000, 0.0000000000000000000, 1.000000000000000000 ) ) ;
#276 = EDGE_CURVE ( 'NONE', #72, #171, #217, .T. ) ;
#277 = CARTESIAN_POINT ( 'NONE',  ( 0.1082531754730547829, 0.1875000000000000555, 0.0000000000000000000 ) ) ;
#278 = VECTOR ( 'NONE', #45, 39.37007874015748143 ) ;
#279 = VECTOR ( 'NONE', #23, 39.37007874015748143 ) ;
#280 = LINE ( 'NONE', #271, #303 ) ;
#281 = COLOUR_RGB ( '',1.000000000000000000, 1.000000000000000000, 1.000000000000000000 ) ;
#282 = AXIS2_PLACEMENT_3D ( 'NONE', #285, #231, #129 ) ;
#283 = EDGE_LOOP ( 'NONE', ( #207, #212, #257, #131, #234, #118 ) ) ;
#284 = CARTESIAN_POINT ( 'NONE',  ( 0.0000000000000000000, 0.0000000000000000000, 0.0000000000000000000 ) ) ;
#285 = CARTESIAN_POINT ( 'NONE',  ( -0.1082531754730548107, 0.1875000000000000555, 0.06250000000000000000 ) ) ;
#286 = CARTESIAN_POINT ( 'NONE',  ( 0.1082531754730549634, -0.1874999999999999167, 0.06250000000000000000 ) ) ;
#287 = SURFACE_STYLE_FILL_AREA ( #41 ) ;
#288 = VERTEX_POINT ( 'NONE', #237 ) ;
#289 = VERTEX_POINT ( 'NONE', #253 ) ;
#290 = PLANE ( 'NONE',  #168 ) ;
#291 = AXIS2_PLACEMENT_3D ( 'NONE', #116, #32, #235 ) ;
#292 =( LENGTH_UNIT ( ) NAMED_UNIT ( * ) SI_UNIT ( $, .METRE. ) );
#293 =( LENGTH_UNIT ( ) NAMED_UNIT ( * ) SI_UNIT ( $, .METRE. ) );
#294 = PLANE ( 'NONE',  #238 ) ;
#295 =( CONVERSION_BASED_UNIT ( 'INCH', #21 ) LENGTH_UNIT ( ) NAMED_UNIT ( #122 ) );
#296 = SURFACE_SIDE_STYLE ('',( #287 ) ) ;
#297 = VERTEX_POINT ( 'NONE', #34 ) ;
#298 = SURFACE_STYLE_FILL_AREA ( #51 ) ;
#299 = ORIENTED_EDGE ( 'NONE', *, *, #132, .T. ) ;
#300 = COLOUR_RGB ( '',1.000000000000000000, 1.000000000000000000, 1.000000000000000000 ) ;
#301 = ORIENTED_EDGE ( 'NONE', *, *, #232, .T. ) ;
#302 = CARTESIAN_POINT ( 'NONE',  ( 0.1082531754730547829, 0.1875000000000000555, 0.06250000000000000000 ) ) ;
#303 = VECTOR ( 'NONE', #20, 39.37007874015748143 ) ;
#304 = VERTEX_POINT ( 'NONE', #177 ) ;
#305 = AXIS2_PLACEMENT_3D ( 'NONE', #272, #126, #94 ) ;
#306 =( NAMED_UNIT ( * ) SI_UNIT ( $, .STERADIAN. ) SOLID_ANGLE_UNIT ( ) );
#307 = CARTESIAN_POINT ( 'NONE',  ( 0.0000000000000000000, 0.0000000000000000000, 0.06250000000000000000 ) ) ;
#308 = CARTESIAN_POINT ( 'NONE',  ( 0.0000000000000000000, 0.0000000000000000000, 0.0000000000000000000 ) ) ;
#309 = ORIENTED_EDGE ( 'NONE', *, *, #139, .F. ) ;
#310 = VECTOR ( 'NONE', #3, 39.37007874015748143 ) ;
#311 = VERTEX_POINT ( 'NONE', #149 ) ;
ENDSEC;
END-ISO-10303-21;
