ISO-10303-21;
HEADER;
FILE_DESCRIPTION (( 'STEP AP214' ),
    '1' );
FILE_NAME ('am-3947-250 375H x 250IN Spacer.STEP',
    '2018-09-24T20:49:58',
    ( '' ),
    ( '' ),
    'SwSTEP 2.0',
    'SolidWorks 2018',
    '' );
FILE_SCHEMA (( 'AUTOMOTIVE_DESIGN' ));
ENDSEC;

DATA;
#1 = CARTESIAN_POINT ( 'NONE',  ( 0.2165063509461097047, -7.084637897906329745E-17, 0.2500000000000000000 ) ) ;
#2 = CARTESIAN_POINT ( 'NONE',  ( 0.0000000000000000000, 0.0000000000000000000, 0.0000000000000000000 ) ) ;
#3 = VERTEX_POINT ( 'NONE', #210 ) ;
#4 = VERTEX_POINT ( 'NONE', #180 ) ;
#5 = ADVANCED_FACE ( 'NONE', ( #89 ), #185, .T. ) ;
#6 = ORIENTED_EDGE ( 'NONE', *, *, #249, .F. ) ;
#7 = CARTESIAN_POINT ( 'NONE',  ( -0.1082531754730547829, -0.1874999999999999722, 0.0000000000000000000 ) ) ;
#8 = VERTEX_POINT ( 'NONE', #216 ) ;
#9 = ORIENTED_EDGE ( 'NONE', *, *, #190, .T. ) ;
#10 = ORIENTED_EDGE ( 'NONE', *, *, #250, .F. ) ;
#11 = ORIENTED_EDGE ( 'NONE', *, *, #242, .T. ) ;
#12 = VERTEX_POINT ( 'NONE', #55 ) ;
#13 = EDGE_LOOP ( 'NONE', ( #51, #72, #159, #43 ) ) ;
#14 = VERTEX_POINT ( 'NONE', #88 ) ;
#15 = PRODUCT_DEFINITION_SHAPE ( 'NONE', 'NONE',  #52 ) ;
#16 =( CONVERSION_BASED_UNIT ( 'INCH', #276 ) LENGTH_UNIT ( ) NAMED_UNIT ( #281 ) );
#17 = ORIENTED_EDGE ( 'NONE', *, *, #111, .F. ) ;
#18 = ORIENTED_EDGE ( 'NONE', *, *, #203, .F. ) ;
#19 = DIRECTION ( 'NONE',  ( -1.000000000000000000, 0.0000000000000000000, 0.0000000000000000000 ) ) ;
#20 = EDGE_CURVE ( 'NONE', #3, #122, #91, .T. ) ;
#21 = DIRECTION ( 'NONE',  ( -0.0000000000000000000, -0.0000000000000000000, -1.000000000000000000 ) ) ;
#22 = EDGE_LOOP ( 'NONE', ( #33, #275, #9, #23 ) ) ;
#23 = ORIENTED_EDGE ( 'NONE', *, *, #20, .T. ) ;
#24 = APPLICATION_PROTOCOL_DEFINITION ( 'draft international standard', 'automotive_design', 1998, #127 ) ;
#25 = CARTESIAN_POINT ( 'NONE',  ( 0.0000000000000000000, 0.0000000000000000000, 0.2500000000000000000 ) ) ;
#26 = ORIENTED_EDGE ( 'NONE', *, *, #158, .F. ) ;
#27 = DIRECTION ( 'NONE',  ( -1.000000000000000000, 0.0000000000000000000, 0.0000000000000000000 ) ) ;
#28 = UNCERTAINTY_MEASURE_WITH_UNIT (LENGTH_MEASURE( 1.000000000000000082E-05 ), #166, 'distance_accuracy_value', 'NONE');
#29 = VECTOR ( 'NONE', #134, 39.37007874015748143 ) ;
#30 = AXIS2_PLACEMENT_3D ( 'NONE', #182, #157, #201 ) ;
#31 = ORIENTED_EDGE ( 'NONE', *, *, #148, .F. ) ;
#32 = FACE_OUTER_BOUND ( 'NONE', #80, .T. ) ;
#33 = ORIENTED_EDGE ( 'NONE', *, *, #136, .F. ) ;
#34 = ADVANCED_FACE ( 'NONE', ( #94, #103 ), #107, .T. ) ;
#35 = EDGE_LOOP ( 'NONE', ( #6, #86, #146, #10, #87, #18 ) ) ;
#36 = ORIENTED_EDGE ( 'NONE', *, *, #116, .T. ) ;
#37 = AXIS2_PLACEMENT_3D ( 'NONE', #175, #301, #282 ) ;
#38 = PRESENTATION_LAYER_ASSIGNMENT (  '', '', ( #270 ) ) ;
#39 = EDGE_LOOP ( 'NONE', ( #222 ) ) ;
#40 = ORIENTED_EDGE ( 'NONE', *, *, #203, .T. ) ;
#41 = ORIENTED_EDGE ( 'NONE', *, *, #148, .T. ) ;
#42 = AXIS2_PLACEMENT_3D ( 'NONE', #274, #76, #256 ) ;
#43 = ORIENTED_EDGE ( 'NONE', *, *, #261, .T. ) ;
#44 = DIRECTION ( 'NONE',  ( -0.0000000000000000000, -0.0000000000000000000, -1.000000000000000000 ) ) ;
#45 = PRODUCT_CONTEXT ( 'NONE', #127, 'mechanical' ) ;
#46 = CARTESIAN_POINT ( 'NONE',  ( -0.2165063509461097047, 3.211045840221350913E-17, 0.2500000000000000000 ) ) ;
#47 = EDGE_LOOP ( 'NONE', ( #73, #79, #58, #41, #297, #36 ) ) ;
#48 = PRESENTATION_STYLE_ASSIGNMENT (( #81 ) ) ;
#49 = VERTEX_POINT ( 'NONE', #296 ) ;
#50 = ORIENTED_EDGE ( 'NONE', *, *, #285, .T. ) ;
#51 = ORIENTED_EDGE ( 'NONE', *, *, #116, .F. ) ;
#52 = PRODUCT_DEFINITION ( 'UNKNOWN', '', #169, #303 ) ;
#53 = DIRECTION ( 'NONE',  ( 0.8660254037844385966, -0.5000000000000003331, 0.0000000000000000000 ) ) ;
#54 = DIRECTION ( 'NONE',  ( -0.5000000000000002220, -0.8660254037844384856, 0.0000000000000000000 ) ) ;
#55 = CARTESIAN_POINT ( 'NONE',  ( -0.2165063509461097047, 3.211045840221350913E-17, 0.0000000000000000000 ) ) ;
#56 = ORIENTED_EDGE ( 'NONE', *, *, #245, .F. ) ;
#57 = AXIS2_PLACEMENT_3D ( 'NONE', #240, #174, #258 ) ;
#58 = ORIENTED_EDGE ( 'NONE', *, *, #268, .T. ) ;
#59 = AXIS2_PLACEMENT_3D ( 'NONE', #25, #246, #141 ) ;
#60 = DIRECTION ( 'NONE',  ( 0.0000000000000000000, 0.0000000000000000000, 1.000000000000000000 ) ) ;
#61 = EDGE_LOOP ( 'NONE', ( #119 ) ) ;
#62 = PRESENTATION_LAYER_ASSIGNMENT (  '', '', ( #220 ) ) ;
#63 = ORIENTED_EDGE ( 'NONE', *, *, #96, .F. ) ;
#64 = SHAPE_DEFINITION_REPRESENTATION ( #15, #150 ) ;
#65 = DIMENSIONAL_EXPONENTS ( 1.000000000000000000, 0.0000000000000000000, 0.0000000000000000000, 0.0000000000000000000, 0.0000000000000000000, 0.0000000000000000000, 0.0000000000000000000 ) ;
#66 =( CONVERSION_BASED_UNIT ( 'INCH', #232 ) LENGTH_UNIT ( ) NAMED_UNIT ( #243 ) );
#67 = VERTEX_POINT ( 'NONE', #188 ) ;
#68 = DIRECTION ( 'NONE',  ( -0.5000000000000002220, -0.8660254037844384856, 0.0000000000000000000 ) ) ;
#69 = FACE_OUTER_BOUND ( 'NONE', #267, .T. ) ;
#70 = CARTESIAN_POINT ( 'NONE',  ( 0.3937007874015748254, 0.0000000000000000000, 0.2500000000000000000 ) ) ;
#71 = VERTEX_POINT ( 'NONE', #108 ) ;
#72 = ORIENTED_EDGE ( 'NONE', *, *, #308, .F. ) ;
#73 = ORIENTED_EDGE ( 'NONE', *, *, #136, .T. ) ;
#74 = DIRECTION ( 'NONE',  ( -1.000000000000000000, 0.0000000000000000000, 0.0000000000000000000 ) ) ;
#75 = MECHANICAL_DESIGN_GEOMETRIC_PRESENTATION_REPRESENTATION (  '', ( #220 ), #229 ) ;
#76 = DIRECTION ( 'NONE',  ( 0.8660254037844384856, 0.5000000000000004441, -0.0000000000000000000 ) ) ;
#77 = PLANE ( 'NONE',  #263 ) ;
#78 = DIRECTION ( 'NONE',  ( 0.5000000000000001110, -0.8660254037844385966, 0.0000000000000000000 ) ) ;
#79 = ORIENTED_EDGE ( 'NONE', *, *, #245, .T. ) ;
#80 = EDGE_LOOP ( 'NONE', ( #26, #63, #83, #114 ) ) ;
#81 = SURFACE_STYLE_USAGE ( .BOTH. , #271 ) ;
#82 = EDGE_LOOP ( 'NONE', ( #56, #85, #163, #50 ) ) ;
#83 = ORIENTED_EDGE ( 'NONE', *, *, #250, .T. ) ;
#84 = CARTESIAN_POINT ( 'NONE',  ( 0.0000000000000000000, 0.0000000000000000000, 0.2500000000000000000 ) ) ;
#85 = ORIENTED_EDGE ( 'NONE', *, *, #20, .F. ) ;
#86 = ORIENTED_EDGE ( 'NONE', *, *, #190, .F. ) ;
#87 = ORIENTED_EDGE ( 'NONE', *, *, #242, .F. ) ;
#88 = CARTESIAN_POINT ( 'NONE',  ( -0.1082531754730547829, -0.1874999999999999722, 0.0000000000000000000 ) ) ;
#89 = FACE_OUTER_BOUND ( 'NONE', #265, .T. ) ;
#90 = ADVANCED_FACE ( 'NONE', ( #95 ), #204, .T. ) ;
#91 = LINE ( 'NONE', #125, #212 ) ;
#92 = PRODUCT_RELATED_PRODUCT_CATEGORY ( 'part', '', ( #302 ) ) ;
#93 = ORIENTED_EDGE ( 'NONE', *, *, #278, .F. ) ;
#94 = FACE_OUTER_BOUND ( 'NONE', #143, .T. ) ;
#95 = FACE_OUTER_BOUND ( 'NONE', #22, .T. ) ;
#96 = EDGE_CURVE ( 'NONE', #4, #12, #238, .T. ) ;
#97 = CARTESIAN_POINT ( 'NONE',  ( 0.1082531754730549634, -0.1874999999999999167, 0.2500000000000000000 ) ) ;
#98 = CIRCLE ( 'NONE', #37, 0.3937007874015748254 ) ;
#99 = FACE_OUTER_BOUND ( 'NONE', #61, .T. ) ;
#100 =( NAMED_UNIT ( * ) PLANE_ANGLE_UNIT ( ) SI_UNIT ( $, .RADIAN. ) );
#101 = DIRECTION ( 'NONE',  ( -0.5000000000000001110, 0.8660254037844385966, 0.0000000000000000000 ) ) ;
#102 = FACE_BOUND ( 'NONE', #35, .T. ) ;
#103 = FACE_OUTER_BOUND ( 'NONE', #39, .T. ) ;
#104 = VERTEX_POINT ( 'NONE', #187 ) ;
#105 = CARTESIAN_POINT ( 'NONE',  ( -0.1082531754730547829, -0.1874999999999999722, 0.2500000000000000000 ) ) ;
#106 = VECTOR ( 'NONE', #244, 39.37007874015748143 ) ;
#107 = CYLINDRICAL_SURFACE ( 'NONE', #151, 0.3937007874015748254 ) ;
#108 = CARTESIAN_POINT ( 'NONE',  ( 0.1082531754730547829, 0.1875000000000000555, 0.2500000000000000000 ) ) ;
#109 = CARTESIAN_POINT ( 'NONE',  ( -0.1082531754730548107, 0.1875000000000000555, 0.2500000000000000000 ) ) ;
#110 = DIRECTION ( 'NONE',  ( 0.5000000000000002220, 0.8660254037844384856, 0.0000000000000000000 ) ) ;
#111 = EDGE_CURVE ( 'NONE', #165, #165, #98, .T. ) ;
#112 = LINE ( 'NONE', #7, #106 ) ;
#113 = VECTOR ( 'NONE', #237, 39.37007874015748143 ) ;
#114 = ORIENTED_EDGE ( 'NONE', *, *, #308, .T. ) ;
#115 = LINE ( 'NONE', #287, #130 ) ;
#116 = EDGE_CURVE ( 'NONE', #14, #49, #112, .T. ) ;
#117 = LINE ( 'NONE', #198, #131 ) ;
#118 = ADVANCED_FACE ( 'NONE', ( #99, #102 ), #120, .T. ) ;
#119 = ORIENTED_EDGE ( 'NONE', *, *, #230, .T. ) ;
#120 = PLANE ( 'NONE',  #181 ) ;
#121 = LINE ( 'NONE', #105, #154 ) ;
#122 = VERTEX_POINT ( 'NONE', #224 ) ;
#123 = COLOUR_RGB ( '',1.000000000000000000, 1.000000000000000000, 1.000000000000000000 ) ;
#124 = CARTESIAN_POINT ( 'NONE',  ( -0.2165063509461097047, 3.211045840221350913E-17, 0.0000000000000000000 ) ) ;
#125 = CARTESIAN_POINT ( 'NONE',  ( 0.2165063509461097047, -7.084637897906329745E-17, 0.2500000000000000000 ) ) ;
#126 = FACE_OUTER_BOUND ( 'NONE', #13, .T. ) ;
#127 = APPLICATION_CONTEXT ( 'automotive_design' ) ;
#128 = CARTESIAN_POINT ( 'NONE',  ( -0.2165063509461097047, 3.211045840221350913E-17, 0.2500000000000000000 ) ) ;
#129 = CARTESIAN_POINT ( 'NONE',  ( 0.3937007874015748254, 0.0000000000000000000, 0.0000000000000000000 ) ) ;
#130 = VECTOR ( 'NONE', #54, 39.37007874015749564 ) ;
#131 = VECTOR ( 'NONE', #194, 39.37007874015748854 ) ;
#132 =( GEOMETRIC_REPRESENTATION_CONTEXT ( 3 ) GLOBAL_UNCERTAINTY_ASSIGNED_CONTEXT ( ( #191 ) ) GLOBAL_UNIT_ASSIGNED_CONTEXT ( ( #66, #179, #286 ) ) REPRESENTATION_CONTEXT ( 'NONE', 'WORKASPACE' ) );
#133 =( NAMED_UNIT ( * ) SI_UNIT ( $, .STERADIAN. ) SOLID_ANGLE_UNIT ( ) );
#134 = DIRECTION ( 'NONE',  ( 0.5000000000000003331, -0.8660254037844383745, 0.0000000000000000000 ) ) ;
#135 = LINE ( 'NONE', #124, #149 ) ;
#136 = EDGE_CURVE ( 'NONE', #49, #122, #117, .T. ) ;
#137 = DIRECTION ( 'NONE',  ( -0.0000000000000000000, -0.0000000000000000000, -1.000000000000000000 ) ) ;
#138 = PLANE ( 'NONE',  #57 ) ;
#139 = VECTOR ( 'NONE', #74, 39.37007874015748143 ) ;
#140 = DIRECTION ( 'NONE',  ( 0.0000000000000000000, -1.000000000000000000, 0.0000000000000000000 ) ) ;
#141 = DIRECTION ( 'NONE',  ( 1.000000000000000000, 0.0000000000000000000, 0.0000000000000000000 ) ) ;
#142 = ORIENTED_EDGE ( 'NONE', *, *, #230, .F. ) ;
#143 = EDGE_LOOP ( 'NONE', ( #142 ) ) ;
#144 = LINE ( 'NONE', #228, #160 ) ;
#145 = ADVANCED_FACE ( 'NONE', ( #126 ), #138, .T. ) ;
#146 = ORIENTED_EDGE ( 'NONE', *, *, #178, .F. ) ;
#147 = DIRECTION ( 'NONE',  ( 1.000000000000000000, 0.0000000000000000000, -0.0000000000000000000 ) ) ;
#148 = EDGE_CURVE ( 'NONE', #279, #12, #115, .T. ) ;
#149 = VECTOR ( 'NONE', #288, 39.37007874015748143 ) ;
#150 = ADVANCED_BREP_SHAPE_REPRESENTATION ( 'am-3947-250 375H x 250IN Spacer', ( #211, #309 ), #290 ) ;
#151 = AXIS2_PLACEMENT_3D ( 'NONE', #84, #168, #27 ) ;
#152 = CIRCLE ( 'NONE', #59, 0.3937007874015748254 ) ;
#153 = UNCERTAINTY_MEASURE_WITH_UNIT (LENGTH_MEASURE( 1.000000000000000082E-05 ), #16, 'distance_accuracy_value', 'NONE');
#154 = VECTOR ( 'NONE', #283, 39.37007874015748143 ) ;
#155 = FACE_BOUND ( 'NONE', #47, .T. ) ;
#156 = PLANE ( 'NONE',  #30 ) ;
#157 = DIRECTION ( 'NONE',  ( 0.0000000000000000000, 0.0000000000000000000, 1.000000000000000000 ) ) ;
#158 = EDGE_CURVE ( 'NONE', #12, #14, #135, .T. ) ;
#159 = ORIENTED_EDGE ( 'NONE', *, *, #178, .T. ) ;
#160 = VECTOR ( 'NONE', #233, 39.37007874015748854 ) ;
#161 = COLOUR_RGB ( '',1.000000000000000000, 1.000000000000000000, 1.000000000000000000 ) ;
#162 = CARTESIAN_POINT ( 'NONE',  ( 0.1082531754730547829, 0.1875000000000000555, 0.2500000000000000000 ) ) ;
#163 = ORIENTED_EDGE ( 'NONE', *, *, #249, .T. ) ;
#164 = LINE ( 'NONE', #205, #139 ) ;
#165 = VERTEX_POINT ( 'NONE', #129 ) ;
#166 =( CONVERSION_BASED_UNIT ( 'INCH', #184 ) LENGTH_UNIT ( ) NAMED_UNIT ( #65 ) );
#167 = FACE_OUTER_BOUND ( 'NONE', #82, .T. ) ;
#168 = DIRECTION ( 'NONE',  ( -0.0000000000000000000, -0.0000000000000000000, -1.000000000000000000 ) ) ;
#169 = PRODUCT_DEFINITION_FORMATION_WITH_SPECIFIED_SOURCE ( 'ANY', '', #302, .NOT_KNOWN. ) ;
#170 = CARTESIAN_POINT ( 'NONE',  ( 0.1082531754730549634, -0.1874999999999999167, 0.2500000000000000000 ) ) ;
#171 = SURFACE_STYLE_FILL_AREA ( #248 ) ;
#172 = FACE_OUTER_BOUND ( 'NONE', #200, .T. ) ;
#173 = CARTESIAN_POINT ( 'NONE',  ( -0.1082531754730548107, 0.1875000000000000555, 0.2500000000000000000 ) ) ;
#174 = DIRECTION ( 'NONE',  ( -3.154466349054401235E-16, 1.000000000000000000, 0.0000000000000000000 ) ) ;
#175 = CARTESIAN_POINT ( 'NONE',  ( 0.0000000000000000000, 0.0000000000000000000, 0.0000000000000000000 ) ) ;
#176 = LINE ( 'NONE', #186, #253 ) ;
#177 = PRESENTATION_STYLE_ASSIGNMENT (( #277 ) ) ;
#178 = EDGE_CURVE ( 'NONE', #225, #8, #121, .T. ) ;
#179 =( NAMED_UNIT ( * ) PLANE_ANGLE_UNIT ( ) SI_UNIT ( $, .RADIAN. ) );
#180 = CARTESIAN_POINT ( 'NONE',  ( -0.2165063509461097047, 3.211045840221350913E-17, 0.2500000000000000000 ) ) ;
#181 = AXIS2_PLACEMENT_3D ( 'NONE', #294, #300, #147 ) ;
#182 = CARTESIAN_POINT ( 'NONE',  ( 0.0000000000000000000, 0.0000000000000000000, 0.0000000000000000000 ) ) ;
#183 = DIRECTION ( 'NONE',  ( -0.8660254037844385966, -0.5000000000000001110, 0.0000000000000000000 ) ) ;
#184 = LENGTH_MEASURE_WITH_UNIT ( LENGTH_MEASURE( 0.02539999999999999897 ), #306 );
#185 = PLANE ( 'NONE',  #218 ) ;
#186 = CARTESIAN_POINT ( 'NONE',  ( -0.1082531754730547829, -0.1874999999999999722, 0.2500000000000000000 ) ) ;
#187 = CARTESIAN_POINT ( 'NONE',  ( 0.1082531754730547829, 0.1875000000000000555, 0.0000000000000000000 ) ) ;
#188 = CARTESIAN_POINT ( 'NONE',  ( -0.1082531754730548107, 0.1875000000000000555, 0.2500000000000000000 ) ) ;
#189 = ORIENTED_EDGE ( 'NONE', *, *, #268, .F. ) ;
#190 = EDGE_CURVE ( 'NONE', #8, #3, #144, .T. ) ;
#191 = UNCERTAINTY_MEASURE_WITH_UNIT (LENGTH_MEASURE( 1.000000000000000082E-05 ), #66, 'distance_accuracy_value', 'NONE');
#192 = VECTOR ( 'NONE', #21, 39.37007874015748143 ) ;
#193 = ADVANCED_FACE ( 'NONE', ( #167 ), #310, .T. ) ;
#194 = DIRECTION ( 'NONE',  ( 0.5000000000000000000, 0.8660254037844385966, 0.0000000000000000000 ) ) ;
#195 = VECTOR ( 'NONE', #19, 39.37007874015748143 ) ;
#196 = LINE ( 'NONE', #109, #255 ) ;
#197 = AXIS2_PLACEMENT_3D ( 'NONE', #254, #183, #78 ) ;
#198 = CARTESIAN_POINT ( 'NONE',  ( 0.1082531754730549634, -0.1874999999999999167, 0.0000000000000000000 ) ) ;
#199 = APPLICATION_PROTOCOL_DEFINITION ( 'draft international standard', 'automotive_design', 1998, #251 ) ;
#200 = EDGE_LOOP ( 'NONE', ( #189, #272, #40, #247 ) ) ;
#201 = DIRECTION ( 'NONE',  ( 1.000000000000000000, 0.0000000000000000000, -0.0000000000000000000 ) ) ;
#202 = CLOSED_SHELL ( 'NONE', ( #118, #298, #34, #90, #193, #221, #5, #241, #145 ) ) ;
#203 = EDGE_CURVE ( 'NONE', #71, #67, #164, .T. ) ;
#204 = PLANE ( 'NONE',  #304 ) ;
#205 = CARTESIAN_POINT ( 'NONE',  ( 0.1082531754730547829, 0.1875000000000000555, 0.2500000000000000000 ) ) ;
#206 = LINE ( 'NONE', #46, #29 ) ;
#207 = DIRECTION ( 'NONE',  ( -0.5000000000000000000, -0.8660254037844385966, 0.0000000000000000000 ) ) ;
#208 = CARTESIAN_POINT ( 'NONE',  ( -0.1082531754730548107, 0.1875000000000000555, 0.0000000000000000000 ) ) ;
#209 = PLANE ( 'NONE',  #42 ) ;
#210 = CARTESIAN_POINT ( 'NONE',  ( 0.2165063509461097047, -7.084637897906329745E-17, 0.2500000000000000000 ) ) ;
#211 = MANIFOLD_SOLID_BREP ( 'Boss-Extrude1', #202 ) ;
#212 = VECTOR ( 'NONE', #289, 39.37007874015748143 ) ;
#213 = CARTESIAN_POINT ( 'NONE',  ( -0.1082531754730548107, 0.1875000000000000555, 0.2500000000000000000 ) ) ;
#214 = VECTOR ( 'NONE', #137, 39.37007874015748143 ) ;
#215 = VECTOR ( 'NONE', #273, 39.37007874015748143 ) ;
#216 = CARTESIAN_POINT ( 'NONE',  ( 0.1082531754730549634, -0.1874999999999999167, 0.2500000000000000000 ) ) ;
#217 = SURFACE_SIDE_STYLE ('',( #171 ) ) ;
#218 = AXIS2_PLACEMENT_3D ( 'NONE', #213, #53, #110 ) ;
#219 = ORIENTED_EDGE ( 'NONE', *, *, #96, .T. ) ;
#220 = STYLED_ITEM ( 'NONE', ( #177 ), #211 ) ;
#221 = ADVANCED_FACE ( 'NONE', ( #172 ), #77, .T. ) ;
#222 = ORIENTED_EDGE ( 'NONE', *, *, #111, .T. ) ;
#223 = LINE ( 'NONE', #97, #192 ) ;
#224 = CARTESIAN_POINT ( 'NONE',  ( 0.2165063509461097047, -7.084637897906329745E-17, 0.0000000000000000000 ) ) ;
#225 = VERTEX_POINT ( 'NONE', #280 ) ;
#226 = SURFACE_STYLE_FILL_AREA ( #291 ) ;
#227 = VECTOR ( 'NONE', #305, 39.37007874015748143 ) ;
#228 = CARTESIAN_POINT ( 'NONE',  ( 0.1082531754730549634, -0.1874999999999999167, 0.2500000000000000000 ) ) ;
#229 =( GEOMETRIC_REPRESENTATION_CONTEXT ( 3 ) GLOBAL_UNCERTAINTY_ASSIGNED_CONTEXT ( ( #28 ) ) GLOBAL_UNIT_ASSIGNED_CONTEXT ( ( #166, #307, #133 ) ) REPRESENTATION_CONTEXT ( 'NONE', 'WORKASPACE' ) );
#230 = EDGE_CURVE ( 'NONE', #260, #260, #152, .T. ) ;
#231 = FILL_AREA_STYLE_COLOUR ( '', #123 ) ;
#232 = LENGTH_MEASURE_WITH_UNIT ( LENGTH_MEASURE( 0.02539999999999999897 ), #257 );
#233 = DIRECTION ( 'NONE',  ( 0.5000000000000000000, 0.8660254037844385966, 0.0000000000000000000 ) ) ;
#234 = DIRECTION ( 'NONE',  ( -0.8660254037844387076, 0.5000000000000001110, 0.0000000000000000000 ) ) ;
#235 = CARTESIAN_POINT ( 'NONE',  ( 0.1082531754730547829, 0.1875000000000000555, 0.2500000000000000000 ) ) ;
#236 = CARTESIAN_POINT ( 'NONE',  ( 0.2165063509461097047, -7.084637897906329745E-17, 0.0000000000000000000 ) ) ;
#237 = DIRECTION ( 'NONE',  ( -0.0000000000000000000, -0.0000000000000000000, -1.000000000000000000 ) ) ;
#238 = LINE ( 'NONE', #128, #113 ) ;
#239 = LINE ( 'NONE', #173, #227 ) ;
#240 = CARTESIAN_POINT ( 'NONE',  ( -0.1082531754730547829, -0.1874999999999999722, 0.2500000000000000000 ) ) ;
#241 = ADVANCED_FACE ( 'NONE', ( #32 ), #209, .T. ) ;
#242 = EDGE_CURVE ( 'NONE', #67, #4, #196, .T. ) ;
#243 = DIMENSIONAL_EXPONENTS ( 1.000000000000000000, 0.0000000000000000000, 0.0000000000000000000, 0.0000000000000000000, 0.0000000000000000000, 0.0000000000000000000, 0.0000000000000000000 ) ;
#244 = DIRECTION ( 'NONE',  ( 1.000000000000000000, 3.154466349054401728E-16, 0.0000000000000000000 ) ) ;
#245 = EDGE_CURVE ( 'NONE', #122, #104, #266, .T. ) ;
#246 = DIRECTION ( 'NONE',  ( 0.0000000000000000000, 0.0000000000000000000, 1.000000000000000000 ) ) ;
#247 = ORIENTED_EDGE ( 'NONE', *, *, #278, .T. ) ;
#248 = FILL_AREA_STYLE ('',( #295 ) ) ;
#249 = EDGE_CURVE ( 'NONE', #3, #71, #284, .T. ) ;
#250 = EDGE_CURVE ( 'NONE', #4, #225, #206, .T. ) ;
#251 = APPLICATION_CONTEXT ( 'automotive_design' ) ;
#252 =( LENGTH_UNIT ( ) NAMED_UNIT ( * ) SI_UNIT ( $, .METRE. ) );
#253 = VECTOR ( 'NONE', #44, 39.37007874015748143 ) ;
#254 = CARTESIAN_POINT ( 'NONE',  ( 0.2165063509461097047, -7.084637897906329745E-17, 0.2500000000000000000 ) ) ;
#255 = VECTOR ( 'NONE', #68, 39.37007874015749564 ) ;
#256 = DIRECTION ( 'NONE',  ( -0.5000000000000003331, 0.8660254037844383745, 0.0000000000000000000 ) ) ;
#257 =( LENGTH_UNIT ( ) NAMED_UNIT ( * ) SI_UNIT ( $, .METRE. ) );
#258 = DIRECTION ( 'NONE',  ( -1.000000000000000000, -3.154466349054401235E-16, 0.0000000000000000000 ) ) ;
#259 = VECTOR ( 'NONE', #101, 39.37007874015748143 ) ;
#260 = VERTEX_POINT ( 'NONE', #70 ) ;
#261 = EDGE_CURVE ( 'NONE', #8, #49, #223, .T. ) ;
#262 = DIRECTION ( 'NONE',  ( 1.000000000000000000, 0.0000000000000000000, 0.0000000000000000000 ) ) ;
#263 = AXIS2_PLACEMENT_3D ( 'NONE', #162, #140, #311 ) ;
#264 = CARTESIAN_POINT ( 'NONE',  ( 0.1082531754730547829, 0.1875000000000000555, 0.0000000000000000000 ) ) ;
#265 = EDGE_LOOP ( 'NONE', ( #31, #93, #11, #219 ) ) ;
#266 = LINE ( 'NONE', #236, #215 ) ;
#267 = EDGE_LOOP ( 'NONE', ( #17 ) ) ;
#268 = EDGE_CURVE ( 'NONE', #104, #279, #293, .T. ) ;
#269 = LINE ( 'NONE', #235, #214 ) ;
#270 = STYLED_ITEM ( 'NONE', ( #48 ), #150 ) ;
#271 = SURFACE_SIDE_STYLE ('',( #226 ) ) ;
#272 = ORIENTED_EDGE ( 'NONE', *, *, #285, .F. ) ;
#273 = DIRECTION ( 'NONE',  ( -0.5000000000000001110, 0.8660254037844385966, 0.0000000000000000000 ) ) ;
#274 = CARTESIAN_POINT ( 'NONE',  ( -0.2165063509461097047, 3.211045840221350913E-17, 0.2500000000000000000 ) ) ;
#275 = ORIENTED_EDGE ( 'NONE', *, *, #261, .F. ) ;
#276 = LENGTH_MEASURE_WITH_UNIT ( LENGTH_MEASURE( 0.02539999999999999897 ), #252 );
#277 = SURFACE_STYLE_USAGE ( .BOTH. , #217 ) ;
#278 = EDGE_CURVE ( 'NONE', #67, #279, #239, .T. ) ;
#279 = VERTEX_POINT ( 'NONE', #208 ) ;
#280 = CARTESIAN_POINT ( 'NONE',  ( -0.1082531754730547829, -0.1874999999999999722, 0.2500000000000000000 ) ) ;
#281 = DIMENSIONAL_EXPONENTS ( 1.000000000000000000, 0.0000000000000000000, 0.0000000000000000000, 0.0000000000000000000, 0.0000000000000000000, 0.0000000000000000000, 0.0000000000000000000 ) ;
#282 = DIRECTION ( 'NONE',  ( 1.000000000000000000, 0.0000000000000000000, 0.0000000000000000000 ) ) ;
#283 = DIRECTION ( 'NONE',  ( 1.000000000000000000, 3.154466349054401728E-16, 0.0000000000000000000 ) ) ;
#284 = LINE ( 'NONE', #1, #259 ) ;
#285 = EDGE_CURVE ( 'NONE', #71, #104, #269, .T. ) ;
#286 =( NAMED_UNIT ( * ) SI_UNIT ( $, .STERADIAN. ) SOLID_ANGLE_UNIT ( ) );
#287 = CARTESIAN_POINT ( 'NONE',  ( -0.1082531754730548107, 0.1875000000000000555, 0.0000000000000000000 ) ) ;
#288 = DIRECTION ( 'NONE',  ( 0.5000000000000003331, -0.8660254037844383745, 0.0000000000000000000 ) ) ;
#289 = DIRECTION ( 'NONE',  ( -0.0000000000000000000, -0.0000000000000000000, -1.000000000000000000 ) ) ;
#290 =( GEOMETRIC_REPRESENTATION_CONTEXT ( 3 ) GLOBAL_UNCERTAINTY_ASSIGNED_CONTEXT ( ( #153 ) ) GLOBAL_UNIT_ASSIGNED_CONTEXT ( ( #16, #100, #292 ) ) REPRESENTATION_CONTEXT ( 'NONE', 'WORKASPACE' ) );
#291 = FILL_AREA_STYLE ('',( #231 ) ) ;
#292 =( NAMED_UNIT ( * ) SI_UNIT ( $, .STERADIAN. ) SOLID_ANGLE_UNIT ( ) );
#293 = LINE ( 'NONE', #264, #195 ) ;
#294 = CARTESIAN_POINT ( 'NONE',  ( 0.0000000000000000000, 0.0000000000000000000, 0.2500000000000000000 ) ) ;
#295 = FILL_AREA_STYLE_COLOUR ( '', #161 ) ;
#296 = CARTESIAN_POINT ( 'NONE',  ( 0.1082531754730549634, -0.1874999999999999167, 0.0000000000000000000 ) ) ;
#297 = ORIENTED_EDGE ( 'NONE', *, *, #158, .T. ) ;
#298 = ADVANCED_FACE ( 'NONE', ( #69, #155 ), #156, .F. ) ;
#299 = MECHANICAL_DESIGN_GEOMETRIC_PRESENTATION_REPRESENTATION (  '', ( #270 ), #132 ) ;
#300 = DIRECTION ( 'NONE',  ( 0.0000000000000000000, 0.0000000000000000000, 1.000000000000000000 ) ) ;
#301 = DIRECTION ( 'NONE',  ( 0.0000000000000000000, 0.0000000000000000000, 1.000000000000000000 ) ) ;
#302 = PRODUCT ( 'am-3947-250 375H x 250IN Spacer', 'am-3947-250 375H x 250IN Spacer', '', ( #45 ) ) ;
#303 = PRODUCT_DEFINITION_CONTEXT ( 'detailed design', #251, 'design' ) ;
#304 = AXIS2_PLACEMENT_3D ( 'NONE', #170, #234, #207 ) ;
#305 = DIRECTION ( 'NONE',  ( -0.0000000000000000000, -0.0000000000000000000, -1.000000000000000000 ) ) ;
#306 =( LENGTH_UNIT ( ) NAMED_UNIT ( * ) SI_UNIT ( $, .METRE. ) );
#307 =( NAMED_UNIT ( * ) PLANE_ANGLE_UNIT ( ) SI_UNIT ( $, .RADIAN. ) );
#308 = EDGE_CURVE ( 'NONE', #225, #14, #176, .T. ) ;
#309 = AXIS2_PLACEMENT_3D ( 'NONE', #2, #60, #262 ) ;
#310 = PLANE ( 'NONE',  #197 ) ;
#311 = DIRECTION ( 'NONE',  ( 0.0000000000000000000, -0.0000000000000000000, -1.000000000000000000 ) ) ;
ENDSEC;
END-ISO-10303-21;
