ISO-10303-21;
HEADER;
FILE_DESCRIPTION (( 'STEP AP214' ),
    '1' );
FILE_NAME ('am-3947-500 375H x 500IN Spacer.STEP',
    '2018-09-24T20:49:30',
    ( '' ),
    ( '' ),
    'SwSTEP 2.0',
    'SolidWorks 2018',
    '' );
FILE_SCHEMA (( 'AUTOMOTIVE_DESIGN' ));
ENDSEC;

DATA;
#1 = ADVANCED_BREP_SHAPE_REPRESENTATION ( 'am-3947-500 375H x 500IN Spacer', ( #270, #225 ), #152 ) ;
#2 =( NAMED_UNIT ( * ) SI_UNIT ( $, .STERADIAN. ) SOLID_ANGLE_UNIT ( ) );
#3 =( NAMED_UNIT ( * ) PLANE_ANGLE_UNIT ( ) SI_UNIT ( $, .RADIAN. ) );
#4 = ORIENTED_EDGE ( 'NONE', *, *, #311, .T. ) ;
#5 = VECTOR ( 'NONE', #299, 39.37007874015748143 ) ;
#6 = DIRECTION ( 'NONE',  ( 0.5000000000000003331, -0.8660254037844383745, 0.0000000000000000000 ) ) ;
#7 = CARTESIAN_POINT ( 'NONE',  ( -0.1082531754730548107, 0.1875000000000000555, 0.0000000000000000000 ) ) ;
#8 = ORIENTED_EDGE ( 'NONE', *, *, #251, .T. ) ;
#9 = DIRECTION ( 'NONE',  ( 0.5000000000000000000, 0.8660254037844385966, 0.0000000000000000000 ) ) ;
#10 = SURFACE_STYLE_FILL_AREA ( #70 ) ;
#11 = DIRECTION ( 'NONE',  ( 0.8660254037844384856, 0.5000000000000004441, -0.0000000000000000000 ) ) ;
#12 = DIRECTION ( 'NONE',  ( -0.8660254037844387076, 0.5000000000000001110, 0.0000000000000000000 ) ) ;
#13 = VECTOR ( 'NONE', #9, 39.37007874015748854 ) ;
#14 = VECTOR ( 'NONE', #167, 39.37007874015749564 ) ;
#15 = STYLED_ITEM ( 'NONE', ( #293 ), #1 ) ;
#16 = EDGE_LOOP ( 'NONE', ( #44, #56, #222, #54, #212, #8 ) ) ;
#17 = DIRECTION ( 'NONE',  ( -0.0000000000000000000, -0.0000000000000000000, -1.000000000000000000 ) ) ;
#18 = ORIENTED_EDGE ( 'NONE', *, *, #51, .F. ) ;
#19 = LINE ( 'NONE', #165, #71 ) ;
#20 = CYLINDRICAL_SURFACE ( 'NONE', #97, 0.3937007874015748254 ) ;
#21 = PRODUCT_DEFINITION_SHAPE ( 'NONE', 'NONE',  #243 ) ;
#22 = ORIENTED_EDGE ( 'NONE', *, *, #34, .T. ) ;
#23 = VERTEX_POINT ( 'NONE', #180 ) ;
#24 = EDGE_CURVE ( 'NONE', #305, #136, #164, .T. ) ;
#25 = ADVANCED_FACE ( 'NONE', ( #82, #276 ), #259, .F. ) ;
#26 = ORIENTED_EDGE ( 'NONE', *, *, #113, .T. ) ;
#27 =( CONVERSION_BASED_UNIT ( 'INCH', #95 ) LENGTH_UNIT ( ) NAMED_UNIT ( #133 ) );
#28 = DIRECTION ( 'NONE',  ( -0.5000000000000001110, 0.8660254037844385966, 0.0000000000000000000 ) ) ;
#29 =( LENGTH_UNIT ( ) NAMED_UNIT ( * ) SI_UNIT ( $, .METRE. ) );
#30 = ORIENTED_EDGE ( 'NONE', *, *, #255, .F. ) ;
#31 = VERTEX_POINT ( 'NONE', #230 ) ;
#32 = DIRECTION ( 'NONE',  ( -1.000000000000000000, -3.154466349054401235E-16, 0.0000000000000000000 ) ) ;
#33 = DIRECTION ( 'NONE',  ( 1.000000000000000000, 3.154466349054401728E-16, 0.0000000000000000000 ) ) ;
#34 = EDGE_CURVE ( 'NONE', #108, #66, #19, .T. ) ;
#35 = CARTESIAN_POINT ( 'NONE',  ( 0.1082531754730547829, 0.1875000000000000555, 0.5000000000000000000 ) ) ;
#36 = SURFACE_STYLE_FILL_AREA ( #295 ) ;
#37 = VERTEX_POINT ( 'NONE', #217 ) ;
#38 = EDGE_CURVE ( 'NONE', #91, #305, #170, .T. ) ;
#39 = VERTEX_POINT ( 'NONE', #189 ) ;
#40 = COLOUR_RGB ( '',1.000000000000000000, 1.000000000000000000, 1.000000000000000000 ) ;
#41 = ORIENTED_EDGE ( 'NONE', *, *, #87, .T. ) ;
#42 = CARTESIAN_POINT ( 'NONE',  ( 0.1082531754730549634, -0.1874999999999999167, 0.5000000000000000000 ) ) ;
#43 = ADVANCED_FACE ( 'NONE', ( #90, #138 ), #232, .T. ) ;
#44 = ORIENTED_EDGE ( 'NONE', *, *, #51, .T. ) ;
#45 = FACE_OUTER_BOUND ( 'NONE', #252, .T. ) ;
#46 = SURFACE_STYLE_USAGE ( .BOTH. , #208 ) ;
#47 = LINE ( 'NONE', #85, #238 ) ;
#48 = DIRECTION ( 'NONE',  ( -0.0000000000000000000, -0.0000000000000000000, -1.000000000000000000 ) ) ;
#49 = DIRECTION ( 'NONE',  ( 0.5000000000000000000, 0.8660254037844385966, 0.0000000000000000000 ) ) ;
#50 =( NAMED_UNIT ( * ) SI_UNIT ( $, .STERADIAN. ) SOLID_ANGLE_UNIT ( ) );
#51 = EDGE_CURVE ( 'NONE', #249, #37, #272, .T. ) ;
#52 = PLANE ( 'NONE',  #223 ) ;
#53 = CARTESIAN_POINT ( 'NONE',  ( 0.1082531754730547829, 0.1875000000000000555, 0.5000000000000000000 ) ) ;
#54 = ORIENTED_EDGE ( 'NONE', *, *, #24, .T. ) ;
#55 = DIRECTION ( 'NONE',  ( 1.000000000000000000, 0.0000000000000000000, 0.0000000000000000000 ) ) ;
#56 = ORIENTED_EDGE ( 'NONE', *, *, #94, .T. ) ;
#57 = FACE_OUTER_BOUND ( 'NONE', #280, .T. ) ;
#58 = LENGTH_MEASURE_WITH_UNIT ( LENGTH_MEASURE( 0.02539999999999999897 ), #29 );
#59 = DIRECTION ( 'NONE',  ( 0.0000000000000000000, -1.000000000000000000, 0.0000000000000000000 ) ) ;
#60 = CARTESIAN_POINT ( 'NONE',  ( 0.1082531754730549634, -0.1874999999999999167, 0.5000000000000000000 ) ) ;
#61 = CLOSED_SHELL ( 'NONE', ( #43, #25, #231, #135, #182, #65, #286, #159, #256 ) ) ;
#62 = VECTOR ( 'NONE', #246, 39.37007874015748143 ) ;
#63 = EDGE_CURVE ( 'NONE', #108, #39, #106, .T. ) ;
#64 = LINE ( 'NONE', #35, #62 ) ;
#65 = ADVANCED_FACE ( 'NONE', ( #45 ), #122, .T. ) ;
#66 = VERTEX_POINT ( 'NONE', #60 ) ;
#67 = SHAPE_DEFINITION_REPRESENTATION ( #21, #1 ) ;
#68 = CARTESIAN_POINT ( 'NONE',  ( -0.1082531754730547829, -0.1874999999999999722, 0.5000000000000000000 ) ) ;
#69 = APPLICATION_PROTOCOL_DEFINITION ( 'draft international standard', 'automotive_design', 1998, #235 ) ;
#70 = FILL_AREA_STYLE ('',( #210 ) ) ;
#71 = VECTOR ( 'NONE', #76, 39.37007874015748143 ) ;
#72 = LINE ( 'NONE', #169, #83 ) ;
#73 = CARTESIAN_POINT ( 'NONE',  ( 0.0000000000000000000, 0.0000000000000000000, 0.0000000000000000000 ) ) ;
#74 = LINE ( 'NONE', #142, #192 ) ;
#75 = DIRECTION ( 'NONE',  ( 0.8660254037844385966, -0.5000000000000003331, 0.0000000000000000000 ) ) ;
#76 = DIRECTION ( 'NONE',  ( 1.000000000000000000, 3.154466349054401728E-16, 0.0000000000000000000 ) ) ;
#77 =( CONVERSION_BASED_UNIT ( 'INCH', #207 ) LENGTH_UNIT ( ) NAMED_UNIT ( #309 ) );
#78 = EDGE_LOOP ( 'NONE', ( #229 ) ) ;
#79 = DIRECTION ( 'NONE',  ( -1.000000000000000000, 0.0000000000000000000, 0.0000000000000000000 ) ) ;
#80 = DIRECTION ( 'NONE',  ( -0.5000000000000001110, 0.8660254037844385966, 0.0000000000000000000 ) ) ;
#81 = CARTESIAN_POINT ( 'NONE',  ( 0.0000000000000000000, 0.0000000000000000000, 0.0000000000000000000 ) ) ;
#82 = FACE_OUTER_BOUND ( 'NONE', #93, .T. ) ;
#83 = VECTOR ( 'NONE', #33, 39.37007874015748143 ) ;
#84 = EDGE_CURVE ( 'NONE', #23, #197, #179, .T. ) ;
#85 = CARTESIAN_POINT ( 'NONE',  ( -0.2165063509461097047, 3.211045840221350913E-17, 0.0000000000000000000 ) ) ;
#86 = ORIENTED_EDGE ( 'NONE', *, *, #287, .F. ) ;
#87 = EDGE_CURVE ( 'NONE', #66, #249, #110, .T. ) ;
#88 = VECTOR ( 'NONE', #6, 39.37007874015748143 ) ;
#89 = EDGE_CURVE ( 'NONE', #136, #39, #47, .T. ) ;
#90 = FACE_OUTER_BOUND ( 'NONE', #78, .T. ) ;
#91 = VERTEX_POINT ( 'NONE', #301 ) ;
#92 = DIMENSIONAL_EXPONENTS ( 1.000000000000000000, 0.0000000000000000000, 0.0000000000000000000, 0.0000000000000000000, 0.0000000000000000000, 0.0000000000000000000, 0.0000000000000000000 ) ;
#93 = EDGE_LOOP ( 'NONE', ( #213 ) ) ;
#94 = EDGE_CURVE ( 'NONE', #37, #201, #307, .T. ) ;
#95 = LENGTH_MEASURE_WITH_UNIT ( LENGTH_MEASURE( 0.02539999999999999897 ), #185 );
#96 = PRODUCT_CONTEXT ( 'NONE', #262, 'mechanical' ) ;
#97 = AXIS2_PLACEMENT_3D ( 'NONE', #218, #297, #79 ) ;
#98 = DIRECTION ( 'NONE',  ( 0.0000000000000000000, 0.0000000000000000000, 1.000000000000000000 ) ) ;
#99 = ORIENTED_EDGE ( 'NONE', *, *, #146, .T. ) ;
#100 = ORIENTED_EDGE ( 'NONE', *, *, #251, .F. ) ;
#101 = SURFACE_STYLE_USAGE ( .BOTH. , #267 ) ;
#102 = CARTESIAN_POINT ( 'NONE',  ( 0.1082531754730549634, -0.1874999999999999167, 0.5000000000000000000 ) ) ;
#103 = PLANE ( 'NONE',  #214 ) ;
#104 = EDGE_LOOP ( 'NONE', ( #257, #277, #298, #253 ) ) ;
#105 = DIRECTION ( 'NONE',  ( -0.8660254037844385966, -0.5000000000000001110, 0.0000000000000000000 ) ) ;
#106 = LINE ( 'NONE', #68, #306 ) ;
#107 = CARTESIAN_POINT ( 'NONE',  ( 0.1082531754730547829, 0.1875000000000000555, 0.5000000000000000000 ) ) ;
#108 = VERTEX_POINT ( 'NONE', #291 ) ;
#109 = MECHANICAL_DESIGN_GEOMETRIC_PRESENTATION_REPRESENTATION (  '', ( #177 ), #308 ) ;
#110 = LINE ( 'NONE', #176, #171 ) ;
#111 = LINE ( 'NONE', #151, #250 ) ;
#112 = DIRECTION ( 'NONE',  ( 1.000000000000000000, 0.0000000000000000000, -0.0000000000000000000 ) ) ;
#113 = EDGE_CURVE ( 'NONE', #245, #245, #175, .T. ) ;
#114 = ORIENTED_EDGE ( 'NONE', *, *, #63, .F. ) ;
#115 = DIRECTION ( 'NONE',  ( 1.000000000000000000, 0.0000000000000000000, 0.0000000000000000000 ) ) ;
#116 = DIRECTION ( 'NONE',  ( 1.000000000000000000, 0.0000000000000000000, -0.0000000000000000000 ) ) ;
#117 = VECTOR ( 'NONE', #80, 39.37007874015748143 ) ;
#118 = CARTESIAN_POINT ( 'NONE',  ( 0.3937007874015748254, 0.0000000000000000000, 0.0000000000000000000 ) ) ;
#119 = PRODUCT ( 'am-3947-500 375H x 500IN Spacer', 'am-3947-500 375H x 500IN Spacer', '', ( #96 ) ) ;
#120 = AXIS2_PLACEMENT_3D ( 'NONE', #206, #160, #112 ) ;
#121 = PLANE ( 'NONE',  #266 ) ;
#122 = PLANE ( 'NONE',  #187 ) ;
#123 = ORIENTED_EDGE ( 'NONE', *, *, #140, .T. ) ;
#124 = CARTESIAN_POINT ( 'NONE',  ( 0.2165063509461097047, -7.084637897906329745E-17, 0.5000000000000000000 ) ) ;
#125 = PLANE ( 'NONE',  #149 ) ;
#126 = UNCERTAINTY_MEASURE_WITH_UNIT (LENGTH_MEASURE( 1.000000000000000082E-05 ), #77, 'distance_accuracy_value', 'NONE');
#127 = EDGE_CURVE ( 'NONE', #201, #305, #111, .T. ) ;
#128 = VECTOR ( 'NONE', #241, 39.37007874015749564 ) ;
#129 = FACE_OUTER_BOUND ( 'NONE', #144, .T. ) ;
#130 = ORIENTED_EDGE ( 'NONE', *, *, #274, .T. ) ;
#131 = VERTEX_POINT ( 'NONE', #264 ) ;
#132 = FACE_OUTER_BOUND ( 'NONE', #155, .T. ) ;
#133 = DIMENSIONAL_EXPONENTS ( 1.000000000000000000, 0.0000000000000000000, 0.0000000000000000000, 0.0000000000000000000, 0.0000000000000000000, 0.0000000000000000000, 0.0000000000000000000 ) ;
#134 = AXIS2_PLACEMENT_3D ( 'NONE', #265, #98, #239 ) ;
#135 = ADVANCED_FACE ( 'NONE', ( #57 ), #172, .T. ) ;
#136 = VERTEX_POINT ( 'NONE', #247 ) ;
#137 = DIRECTION ( 'NONE',  ( 0.0000000000000000000, 0.0000000000000000000, 1.000000000000000000 ) ) ;
#138 = FACE_BOUND ( 'NONE', #285, .T. ) ;
#139 = PRESENTATION_STYLE_ASSIGNMENT (( #101 ) ) ;
#140 = EDGE_CURVE ( 'NONE', #197, #91, #64, .T. ) ;
#141 =( NAMED_UNIT ( * ) SI_UNIT ( $, .STERADIAN. ) SOLID_ANGLE_UNIT ( ) );
#142 = CARTESIAN_POINT ( 'NONE',  ( 0.2165063509461097047, -7.084637897906329745E-17, 0.5000000000000000000 ) ) ;
#143 = ORIENTED_EDGE ( 'NONE', *, *, #140, .F. ) ;
#144 = EDGE_LOOP ( 'NONE', ( #154, #233, #153, #294 ) ) ;
#145 = FILL_AREA_STYLE_COLOUR ( '', #202 ) ;
#146 = EDGE_CURVE ( 'NONE', #31, #136, #181, .T. ) ;
#147 = CARTESIAN_POINT ( 'NONE',  ( 0.1082531754730549634, -0.1874999999999999167, 0.0000000000000000000 ) ) ;
#148 = DIRECTION ( 'NONE',  ( -0.5000000000000003331, 0.8660254037844383745, 0.0000000000000000000 ) ) ;
#149 = AXIS2_PLACEMENT_3D ( 'NONE', #194, #11, #148 ) ;
#150 = DIRECTION ( 'NONE',  ( -0.5000000000000000000, -0.8660254037844385966, 0.0000000000000000000 ) ) ;
#151 = CARTESIAN_POINT ( 'NONE',  ( 0.1082531754730547829, 0.1875000000000000555, 0.0000000000000000000 ) ) ;
#152 =( GEOMETRIC_REPRESENTATION_CONTEXT ( 3 ) GLOBAL_UNCERTAINTY_ASSIGNED_CONTEXT ( ( #199 ) ) GLOBAL_UNIT_ASSIGNED_CONTEXT ( ( #162, #3, #141 ) ) REPRESENTATION_CONTEXT ( 'NONE', 'WORKASPACE' ) );
#153 = ORIENTED_EDGE ( 'NONE', *, *, #84, .T. ) ;
#154 = ORIENTED_EDGE ( 'NONE', *, *, #94, .F. ) ;
#155 = EDGE_LOOP ( 'NONE', ( #100, #114, #22, #41 ) ) ;
#156 = LINE ( 'NONE', #269, #14 ) ;
#157 = MECHANICAL_DESIGN_GEOMETRIC_PRESENTATION_REPRESENTATION (  '', ( #15 ), #263 ) ;
#158 = EDGE_LOOP ( 'NONE', ( #184 ) ) ;
#159 = ADVANCED_FACE ( 'NONE', ( #186 ), #125, .T. ) ;
#160 = DIRECTION ( 'NONE',  ( 0.0000000000000000000, 0.0000000000000000000, 1.000000000000000000 ) ) ;
#161 =( NAMED_UNIT ( * ) PLANE_ANGLE_UNIT ( ) SI_UNIT ( $, .RADIAN. ) );
#162 =( CONVERSION_BASED_UNIT ( 'INCH', #58 ) LENGTH_UNIT ( ) NAMED_UNIT ( #92 ) );
#163 = CARTESIAN_POINT ( 'NONE',  ( -0.2165063509461097047, 3.211045840221350913E-17, 0.5000000000000000000 ) ) ;
#164 = LINE ( 'NONE', #7, #128 ) ;
#165 = CARTESIAN_POINT ( 'NONE',  ( -0.1082531754730547829, -0.1874999999999999722, 0.5000000000000000000 ) ) ;
#166 = ORIENTED_EDGE ( 'NONE', *, *, #84, .F. ) ;
#167 = DIRECTION ( 'NONE',  ( -0.5000000000000002220, -0.8660254037844384856, 0.0000000000000000000 ) ) ;
#168 = CARTESIAN_POINT ( 'NONE',  ( -0.1082531754730548107, 0.1875000000000000555, 0.5000000000000000000 ) ) ;
#169 = CARTESIAN_POINT ( 'NONE',  ( -0.1082531754730547829, -0.1874999999999999722, 0.0000000000000000000 ) ) ;
#170 = LINE ( 'NONE', #215, #237 ) ;
#171 = VECTOR ( 'NONE', #174, 39.37007874015748143 ) ;
#172 = PLANE ( 'NONE',  #203 ) ;
#173 = DIRECTION ( 'NONE',  ( 0.5000000000000003331, -0.8660254037844383745, 0.0000000000000000000 ) ) ;
#174 = DIRECTION ( 'NONE',  ( -0.0000000000000000000, -0.0000000000000000000, -1.000000000000000000 ) ) ;
#175 = CIRCLE ( 'NONE', #195, 0.3937007874015748254 ) ;
#176 = CARTESIAN_POINT ( 'NONE',  ( 0.1082531754730549634, -0.1874999999999999167, 0.5000000000000000000 ) ) ;
#177 = STYLED_ITEM ( 'NONE', ( #139 ), #270 ) ;
#178 = ORIENTED_EDGE ( 'NONE', *, *, #127, .F. ) ;
#179 = LINE ( 'NONE', #224, #303 ) ;
#180 = CARTESIAN_POINT ( 'NONE',  ( 0.2165063509461097047, -7.084637897906329745E-17, 0.5000000000000000000 ) ) ;
#181 = LINE ( 'NONE', #219, #5 ) ;
#182 = ADVANCED_FACE ( 'NONE', ( #129 ), #103, .T. ) ;
#183 = DIRECTION ( 'NONE',  ( -0.0000000000000000000, -0.0000000000000000000, -1.000000000000000000 ) ) ;
#184 = ORIENTED_EDGE ( 'NONE', *, *, #283, .F. ) ;
#185 =( LENGTH_UNIT ( ) NAMED_UNIT ( * ) SI_UNIT ( $, .METRE. ) );
#186 = FACE_OUTER_BOUND ( 'NONE', #104, .T. ) ;
#187 = AXIS2_PLACEMENT_3D ( 'NONE', #107, #59, #200 ) ;
#188 = CARTESIAN_POINT ( 'NONE',  ( 0.1082531754730547829, 0.1875000000000000555, 0.5000000000000000000 ) ) ;
#189 = CARTESIAN_POINT ( 'NONE',  ( -0.1082531754730547829, -0.1874999999999999722, 0.0000000000000000000 ) ) ;
#190 = DIRECTION ( 'NONE',  ( -3.154466349054401235E-16, 1.000000000000000000, 0.0000000000000000000 ) ) ;
#191 = ORIENTED_EDGE ( 'NONE', *, *, #34, .F. ) ;
#192 = VECTOR ( 'NONE', #236, 39.37007874015748143 ) ;
#193 = CARTESIAN_POINT ( 'NONE',  ( 0.1082531754730547829, 0.1875000000000000555, 0.0000000000000000000 ) ) ;
#194 = CARTESIAN_POINT ( 'NONE',  ( -0.2165063509461097047, 3.211045840221350913E-17, 0.5000000000000000000 ) ) ;
#195 = AXIS2_PLACEMENT_3D ( 'NONE', #81, #221, #55 ) ;
#196 = DIRECTION ( 'NONE',  ( -1.000000000000000000, 0.0000000000000000000, 0.0000000000000000000 ) ) ;
#197 = VERTEX_POINT ( 'NONE', #53 ) ;
#198 = FACE_OUTER_BOUND ( 'NONE', #242, .T. ) ;
#199 = UNCERTAINTY_MEASURE_WITH_UNIT (LENGTH_MEASURE( 1.000000000000000082E-05 ), #162, 'distance_accuracy_value', 'NONE');
#200 = DIRECTION ( 'NONE',  ( 0.0000000000000000000, -0.0000000000000000000, -1.000000000000000000 ) ) ;
#201 = VERTEX_POINT ( 'NONE', #193 ) ;
#202 = COLOUR_RGB ( '',1.000000000000000000, 1.000000000000000000, 1.000000000000000000 ) ;
#203 = AXIS2_PLACEMENT_3D ( 'NONE', #42, #12, #150 ) ;
#204 = ORIENTED_EDGE ( 'NONE', *, *, #300, .F. ) ;
#205 = ORIENTED_EDGE ( 'NONE', *, *, #38, .F. ) ;
#206 = CARTESIAN_POINT ( 'NONE',  ( 0.0000000000000000000, 0.0000000000000000000, 0.5000000000000000000 ) ) ;
#207 = LENGTH_MEASURE_WITH_UNIT ( LENGTH_MEASURE( 0.02539999999999999897 ), #240 );
#208 = SURFACE_SIDE_STYLE ('',( #10 ) ) ;
#209 = LINE ( 'NONE', #188, #234 ) ;
#210 = FILL_AREA_STYLE_COLOUR ( '', #40 ) ;
#211 = DIRECTION ( 'NONE',  ( 0.5000000000000002220, 0.8660254037844384856, 0.0000000000000000000 ) ) ;
#212 = ORIENTED_EDGE ( 'NONE', *, *, #89, .T. ) ;
#213 = ORIENTED_EDGE ( 'NONE', *, *, #113, .F. ) ;
#214 = AXIS2_PLACEMENT_3D ( 'NONE', #124, #105, #244 ) ;
#215 = CARTESIAN_POINT ( 'NONE',  ( -0.1082531754730548107, 0.1875000000000000555, 0.5000000000000000000 ) ) ;
#216 =( NAMED_UNIT ( * ) PLANE_ANGLE_UNIT ( ) SI_UNIT ( $, .RADIAN. ) );
#217 = CARTESIAN_POINT ( 'NONE',  ( 0.2165063509461097047, -7.084637897906329745E-17, 0.0000000000000000000 ) ) ;
#218 = CARTESIAN_POINT ( 'NONE',  ( 0.0000000000000000000, 0.0000000000000000000, 0.5000000000000000000 ) ) ;
#219 = CARTESIAN_POINT ( 'NONE',  ( -0.2165063509461097047, 3.211045840221350913E-17, 0.5000000000000000000 ) ) ;
#220 = VECTOR ( 'NONE', #49, 39.37007874015748854 ) ;
#221 = DIRECTION ( 'NONE',  ( 0.0000000000000000000, 0.0000000000000000000, 1.000000000000000000 ) ) ;
#222 = ORIENTED_EDGE ( 'NONE', *, *, #127, .T. ) ;
#223 = AXIS2_PLACEMENT_3D ( 'NONE', #296, #190, #32 ) ;
#224 = CARTESIAN_POINT ( 'NONE',  ( 0.2165063509461097047, -7.084637897906329745E-17, 0.5000000000000000000 ) ) ;
#225 = AXIS2_PLACEMENT_3D ( 'NONE', #73, #290, #115 ) ;
#226 = ORIENTED_EDGE ( 'NONE', *, *, #255, .T. ) ;
#227 = LINE ( 'NONE', #163, #88 ) ;
#228 = CARTESIAN_POINT ( 'NONE',  ( 0.0000000000000000000, 0.0000000000000000000, 0.0000000000000000000 ) ) ;
#229 = ORIENTED_EDGE ( 'NONE', *, *, #283, .T. ) ;
#230 = CARTESIAN_POINT ( 'NONE',  ( -0.2165063509461097047, 3.211045840221350913E-17, 0.5000000000000000000 ) ) ;
#231 = ADVANCED_FACE ( 'NONE', ( #254, #198 ), #20, .T. ) ;
#232 = PLANE ( 'NONE',  #120 ) ;
#233 = ORIENTED_EDGE ( 'NONE', *, *, #311, .F. ) ;
#234 = VECTOR ( 'NONE', #48, 39.37007874015748143 ) ;
#235 = APPLICATION_CONTEXT ( 'automotive_design' ) ;
#236 = DIRECTION ( 'NONE',  ( -0.0000000000000000000, -0.0000000000000000000, -1.000000000000000000 ) ) ;
#237 = VECTOR ( 'NONE', #183, 39.37007874015748143 ) ;
#238 = VECTOR ( 'NONE', #173, 39.37007874015748143 ) ;
#239 = DIRECTION ( 'NONE',  ( 1.000000000000000000, 0.0000000000000000000, 0.0000000000000000000 ) ) ;
#240 =( LENGTH_UNIT ( ) NAMED_UNIT ( * ) SI_UNIT ( $, .METRE. ) );
#241 = DIRECTION ( 'NONE',  ( -0.5000000000000002220, -0.8660254037844384856, 0.0000000000000000000 ) ) ;
#242 = EDGE_LOOP ( 'NONE', ( #26 ) ) ;
#243 = PRODUCT_DEFINITION ( 'UNKNOWN', '', #258, #281 ) ;
#244 = DIRECTION ( 'NONE',  ( 0.5000000000000001110, -0.8660254037844385966, 0.0000000000000000000 ) ) ;
#245 = VERTEX_POINT ( 'NONE', #118 ) ;
#246 = DIRECTION ( 'NONE',  ( -1.000000000000000000, 0.0000000000000000000, 0.0000000000000000000 ) ) ;
#247 = CARTESIAN_POINT ( 'NONE',  ( -0.2165063509461097047, 3.211045840221350913E-17, 0.0000000000000000000 ) ) ;
#248 = CARTESIAN_POINT ( 'NONE',  ( 0.2165063509461097047, -7.084637897906329745E-17, 0.0000000000000000000 ) ) ;
#249 = VERTEX_POINT ( 'NONE', #147 ) ;
#250 = VECTOR ( 'NONE', #196, 39.37007874015748143 ) ;
#251 = EDGE_CURVE ( 'NONE', #39, #249, #72, .T. ) ;
#252 = EDGE_LOOP ( 'NONE', ( #178, #204, #123, #310 ) ) ;
#253 = ORIENTED_EDGE ( 'NONE', *, *, #63, .T. ) ;
#254 = FACE_OUTER_BOUND ( 'NONE', #158, .T. ) ;
#255 = EDGE_CURVE ( 'NONE', #66, #23, #261, .T. ) ;
#256 = ADVANCED_FACE ( 'NONE', ( #132 ), #52, .T. ) ;
#257 = ORIENTED_EDGE ( 'NONE', *, *, #89, .F. ) ;
#258 = PRODUCT_DEFINITION_FORMATION_WITH_SPECIFIED_SOURCE ( 'ANY', '', #119, .NOT_KNOWN. ) ;
#259 = PLANE ( 'NONE',  #288 ) ;
#260 = APPLICATION_PROTOCOL_DEFINITION ( 'draft international standard', 'automotive_design', 1998, #262 ) ;
#261 = LINE ( 'NONE', #102, #13 ) ;
#262 = APPLICATION_CONTEXT ( 'automotive_design' ) ;
#263 =( GEOMETRIC_REPRESENTATION_CONTEXT ( 3 ) GLOBAL_UNCERTAINTY_ASSIGNED_CONTEXT ( ( #278 ) ) GLOBAL_UNIT_ASSIGNED_CONTEXT ( ( #27, #161, #2 ) ) REPRESENTATION_CONTEXT ( 'NONE', 'WORKASPACE' ) );
#264 = CARTESIAN_POINT ( 'NONE',  ( 0.3937007874015748254, 0.0000000000000000000, 0.5000000000000000000 ) ) ;
#265 = CARTESIAN_POINT ( 'NONE',  ( 0.0000000000000000000, 0.0000000000000000000, 0.5000000000000000000 ) ) ;
#266 = AXIS2_PLACEMENT_3D ( 'NONE', #168, #75, #211 ) ;
#267 = SURFACE_SIDE_STYLE ('',( #36 ) ) ;
#268 = ORIENTED_EDGE ( 'NONE', *, *, #87, .F. ) ;
#269 = CARTESIAN_POINT ( 'NONE',  ( -0.1082531754730548107, 0.1875000000000000555, 0.5000000000000000000 ) ) ;
#270 = MANIFOLD_SOLID_BREP ( 'Boss-Extrude1', #61 ) ;
#271 = PRESENTATION_LAYER_ASSIGNMENT (  '', '', ( #177 ) ) ;
#272 = LINE ( 'NONE', #275, #220 ) ;
#273 = CIRCLE ( 'NONE', #134, 0.3937007874015748254 ) ;
#274 = EDGE_CURVE ( 'NONE', #91, #31, #156, .T. ) ;
#275 = CARTESIAN_POINT ( 'NONE',  ( 0.1082531754730549634, -0.1874999999999999167, 0.0000000000000000000 ) ) ;
#276 = FACE_BOUND ( 'NONE', #16, .T. ) ;
#277 = ORIENTED_EDGE ( 'NONE', *, *, #146, .F. ) ;
#278 = UNCERTAINTY_MEASURE_WITH_UNIT (LENGTH_MEASURE( 1.000000000000000082E-05 ), #27, 'distance_accuracy_value', 'NONE');
#279 = PRODUCT_RELATED_PRODUCT_CATEGORY ( 'part', '', ( #119 ) ) ;
#280 = EDGE_LOOP ( 'NONE', ( #18, #268, #226, #4 ) ) ;
#281 = PRODUCT_DEFINITION_CONTEXT ( 'detailed design', #235, 'design' ) ;
#282 = FACE_OUTER_BOUND ( 'NONE', #289, .T. ) ;
#283 = EDGE_CURVE ( 'NONE', #131, #131, #273, .T. ) ;
#284 = ORIENTED_EDGE ( 'NONE', *, *, #24, .F. ) ;
#285 = EDGE_LOOP ( 'NONE', ( #166, #30, #191, #86, #302, #143 ) ) ;
#286 = ADVANCED_FACE ( 'NONE', ( #282 ), #121, .T. ) ;
#287 = EDGE_CURVE ( 'NONE', #31, #108, #227, .T. ) ;
#288 = AXIS2_PLACEMENT_3D ( 'NONE', #228, #137, #116 ) ;
#289 = EDGE_LOOP ( 'NONE', ( #284, #205, #130, #99 ) ) ;
#290 = DIRECTION ( 'NONE',  ( 0.0000000000000000000, 0.0000000000000000000, 1.000000000000000000 ) ) ;
#291 = CARTESIAN_POINT ( 'NONE',  ( -0.1082531754730547829, -0.1874999999999999722, 0.5000000000000000000 ) ) ;
#292 = CARTESIAN_POINT ( 'NONE',  ( -0.1082531754730548107, 0.1875000000000000555, 0.0000000000000000000 ) ) ;
#293 = PRESENTATION_STYLE_ASSIGNMENT (( #46 ) ) ;
#294 = ORIENTED_EDGE ( 'NONE', *, *, #300, .T. ) ;
#295 = FILL_AREA_STYLE ('',( #145 ) ) ;
#296 = CARTESIAN_POINT ( 'NONE',  ( -0.1082531754730547829, -0.1874999999999999722, 0.5000000000000000000 ) ) ;
#297 = DIRECTION ( 'NONE',  ( -0.0000000000000000000, -0.0000000000000000000, -1.000000000000000000 ) ) ;
#298 = ORIENTED_EDGE ( 'NONE', *, *, #287, .T. ) ;
#299 = DIRECTION ( 'NONE',  ( -0.0000000000000000000, -0.0000000000000000000, -1.000000000000000000 ) ) ;
#300 = EDGE_CURVE ( 'NONE', #197, #201, #209, .T. ) ;
#301 = CARTESIAN_POINT ( 'NONE',  ( -0.1082531754730548107, 0.1875000000000000555, 0.5000000000000000000 ) ) ;
#302 = ORIENTED_EDGE ( 'NONE', *, *, #274, .F. ) ;
#303 = VECTOR ( 'NONE', #28, 39.37007874015748143 ) ;
#304 = PRESENTATION_LAYER_ASSIGNMENT (  '', '', ( #15 ) ) ;
#305 = VERTEX_POINT ( 'NONE', #292 ) ;
#306 = VECTOR ( 'NONE', #17, 39.37007874015748143 ) ;
#307 = LINE ( 'NONE', #248, #117 ) ;
#308 =( GEOMETRIC_REPRESENTATION_CONTEXT ( 3 ) GLOBAL_UNCERTAINTY_ASSIGNED_CONTEXT ( ( #126 ) ) GLOBAL_UNIT_ASSIGNED_CONTEXT ( ( #77, #216, #50 ) ) REPRESENTATION_CONTEXT ( 'NONE', 'WORKASPACE' ) );
#309 = DIMENSIONAL_EXPONENTS ( 1.000000000000000000, 0.0000000000000000000, 0.0000000000000000000, 0.0000000000000000000, 0.0000000000000000000, 0.0000000000000000000, 0.0000000000000000000 ) ;
#310 = ORIENTED_EDGE ( 'NONE', *, *, #38, .T. ) ;
#311 = EDGE_CURVE ( 'NONE', #23, #37, #74, .T. ) ;
ENDSEC;
END-ISO-10303-21;
