ISO-10303-21;
HEADER;
FILE_DESCRIPTION (( 'STEP AP214' ),
    '1' );
FILE_NAME ('am-3948-1000 500H x 1000IN Spacer.STEP',
    '2018-09-24T21:09:26',
    ( '' ),
    ( '' ),
    'SwSTEP 2.0',
    'SolidWorks 2018',
    '' );
FILE_SCHEMA (( 'AUTOMOTIVE_DESIGN' ));
ENDSEC;

DATA;
#1 = DIRECTION ( 'NONE',  ( 0.0000000000000000000, 0.0000000000000000000, 1.000000000000000000 ) ) ;
#2 = VECTOR ( 'NONE', #253, 39.37007874015748143 ) ;
#3 = CARTESIAN_POINT ( 'NONE',  ( 0.3937007874015748254, 0.0000000000000000000, 1.000000000000000000 ) ) ;
#4 = PRESENTATION_STYLE_ASSIGNMENT (( #269 ) ) ;
#5 = ORIENTED_EDGE ( 'NONE', *, *, #231, .F. ) ;
#6 = ORIENTED_EDGE ( 'NONE', *, *, #263, .F. ) ;
#7 = CARTESIAN_POINT ( 'NONE',  ( 0.2886751345948129210, -3.392667169346791278E-17, 1.000000000000000000 ) ) ;
#8 = MANIFOLD_SOLID_BREP ( 'Boss-Extrude1', #104 ) ;
#9 = EDGE_CURVE ( 'NONE', #60, #304, #250, .T. ) ;
#10 = LINE ( 'NONE', #103, #276 ) ;
#11 = CARTESIAN_POINT ( 'NONE',  ( 0.1443375672974063217, 0.2500000000000000555, 0.0000000000000000000 ) ) ;
#12 = EDGE_CURVE ( 'NONE', #54, #60, #118, .T. ) ;
#13 = DIMENSIONAL_EXPONENTS ( 1.000000000000000000, 0.0000000000000000000, 0.0000000000000000000, 0.0000000000000000000, 0.0000000000000000000, 0.0000000000000000000, 0.0000000000000000000 ) ;
#14 = LINE ( 'NONE', #38, #274 ) ;
#15 = DIRECTION ( 'NONE',  ( -1.182924880895401264E-16, 1.000000000000000000, 0.0000000000000000000 ) ) ;
#16 = ORIENTED_EDGE ( 'NONE', *, *, #266, .F. ) ;
#17 = EDGE_CURVE ( 'NONE', #228, #304, #10, .T. ) ;
#18 = CARTESIAN_POINT ( 'NONE',  ( -0.1443375672974063217, -0.2499999999999999722, 1.000000000000000000 ) ) ;
#19 =( LENGTH_UNIT ( ) NAMED_UNIT ( * ) SI_UNIT ( $, .METRE. ) );
#20 = FACE_OUTER_BOUND ( 'NONE', #79, .T. ) ;
#21 =( NAMED_UNIT ( * ) SI_UNIT ( $, .STERADIAN. ) SOLID_ANGLE_UNIT ( ) );
#22 = COLOUR_RGB ( '',1.000000000000000000, 1.000000000000000000, 1.000000000000000000 ) ;
#23 = DIRECTION ( 'NONE',  ( -0.8660254037844385966, -0.5000000000000003331, 0.0000000000000000000 ) ) ;
#24 = PLANE ( 'NONE',  #31 ) ;
#25 = CARTESIAN_POINT ( 'NONE',  ( 0.1443375672974063217, 0.2500000000000000555, 1.000000000000000000 ) ) ;
#26 = AXIS2_PLACEMENT_3D ( 'NONE', #42, #115, #236 ) ;
#27 = PRODUCT_DEFINITION_SHAPE ( 'NONE', 'NONE',  #74 ) ;
#28 = DIRECTION ( 'NONE',  ( 1.000000000000000000, 0.0000000000000000000, -0.0000000000000000000 ) ) ;
#29 = CYLINDRICAL_SURFACE ( 'NONE', #219, 0.3937007874015748254 ) ;
#30 = CARTESIAN_POINT ( 'NONE',  ( 0.1443375672974065438, -0.2499999999999999167, 0.0000000000000000000 ) ) ;
#31 = AXIS2_PLACEMENT_3D ( 'NONE', #311, #157, #194 ) ;
#32 = PLANE ( 'NONE',  #108 ) ;
#33 = CIRCLE ( 'NONE', #55, 0.3937007874015748254 ) ;
#34 = VERTEX_POINT ( 'NONE', #69 ) ;
#35 = CARTESIAN_POINT ( 'NONE',  ( 0.1443375672974063217, 0.2500000000000000555, 1.000000000000000000 ) ) ;
#36 = LINE ( 'NONE', #18, #196 ) ;
#37 = EDGE_CURVE ( 'NONE', #50, #228, #238, .T. ) ;
#38 = CARTESIAN_POINT ( 'NONE',  ( 0.1443375672974065438, -0.2499999999999999167, 1.000000000000000000 ) ) ;
#39 = EDGE_LOOP ( 'NONE', ( #254 ) ) ;
#40 = LINE ( 'NONE', #278, #85 ) ;
#41 = DIRECTION ( 'NONE',  ( 0.5000000000000001110, 0.8660254037844385966, 0.0000000000000000000 ) ) ;
#42 = CARTESIAN_POINT ( 'NONE',  ( 0.0000000000000000000, 0.0000000000000000000, 0.0000000000000000000 ) ) ;
#43 = CARTESIAN_POINT ( 'NONE',  ( -0.1443375672974063217, -0.2499999999999999722, 1.000000000000000000 ) ) ;
#44 = DIRECTION ( 'NONE',  ( 0.4999999999999998890, 0.8660254037844385966, 0.0000000000000000000 ) ) ;
#45 = ORIENTED_EDGE ( 'NONE', *, *, #154, .F. ) ;
#46 = ORIENTED_EDGE ( 'NONE', *, *, #37, .F. ) ;
#47 = DIRECTION ( 'NONE',  ( -0.5000000000000002220, 0.8660254037844384856, 0.0000000000000000000 ) ) ;
#48 = CARTESIAN_POINT ( 'NONE',  ( -0.1443375672974064050, 0.2500000000000000555, 1.000000000000000000 ) ) ;
#49 = LINE ( 'NONE', #222, #2 ) ;
#50 = VERTEX_POINT ( 'NONE', #110 ) ;
#51 = DIRECTION ( 'NONE',  ( -0.0000000000000000000, -0.0000000000000000000, -1.000000000000000000 ) ) ;
#52 = EDGE_LOOP ( 'NONE', ( #65, #160, #271, #173, #5, #16 ) ) ;
#53 = CARTESIAN_POINT ( 'NONE',  ( 0.0000000000000000000, 0.0000000000000000000, 1.000000000000000000 ) ) ;
#54 = VERTEX_POINT ( 'NONE', #89 ) ;
#55 = AXIS2_PLACEMENT_3D ( 'NONE', #272, #61, #57 ) ;
#56 = PRODUCT_RELATED_PRODUCT_CATEGORY ( 'part', '', ( #155 ) ) ;
#57 = DIRECTION ( 'NONE',  ( 1.000000000000000000, 0.0000000000000000000, 0.0000000000000000000 ) ) ;
#58 = EDGE_LOOP ( 'NONE', ( #106 ) ) ;
#59 = LINE ( 'NONE', #210, #305 ) ;
#60 = VERTEX_POINT ( 'NONE', #310 ) ;
#61 = DIRECTION ( 'NONE',  ( 0.0000000000000000000, 0.0000000000000000000, 1.000000000000000000 ) ) ;
#62 = DIRECTION ( 'NONE',  ( -1.000000000000000000, 0.0000000000000000000, 0.0000000000000000000 ) ) ;
#63 = ADVANCED_FACE ( 'NONE', ( #243 ), #32, .T. ) ;
#64 = EDGE_CURVE ( 'NONE', #214, #81, #70, .T. ) ;
#65 = ORIENTED_EDGE ( 'NONE', *, *, #152, .F. ) ;
#66 = ADVANCED_FACE ( 'NONE', ( #113, #300 ), #29, .T. ) ;
#67 = VECTOR ( 'NONE', #164, 39.37007874015749564 ) ;
#68 = LINE ( 'NONE', #149, #165 ) ;
#69 = CARTESIAN_POINT ( 'NONE',  ( -0.1443375672974064050, 0.2500000000000000555, 0.0000000000000000000 ) ) ;
#70 = LINE ( 'NONE', #120, #67 ) ;
#71 =( NAMED_UNIT ( * ) PLANE_ANGLE_UNIT ( ) SI_UNIT ( $, .RADIAN. ) );
#72 = ORIENTED_EDGE ( 'NONE', *, *, #242, .T. ) ;
#73 = PLANE ( 'NONE',  #224 ) ;
#74 = PRODUCT_DEFINITION ( 'UNKNOWN', '', #137, #134 ) ;
#75 = CARTESIAN_POINT ( 'NONE',  ( -0.1443375672974063217, -0.2499999999999999722, 1.000000000000000000 ) ) ;
#76 = VECTOR ( 'NONE', #117, 39.37007874015748143 ) ;
#77 = CARTESIAN_POINT ( 'NONE',  ( -0.2886751345948128655, 6.809993419335529712E-17, 1.000000000000000000 ) ) ;
#78 = ORIENTED_EDGE ( 'NONE', *, *, #12, .T. ) ;
#79 = EDGE_LOOP ( 'NONE', ( #178 ) ) ;
#80 = DIRECTION ( 'NONE',  ( -1.000000000000000000, 0.0000000000000000000, 0.0000000000000000000 ) ) ;
#81 = VERTEX_POINT ( 'NONE', #75 ) ;
#82 = DIRECTION ( 'NONE',  ( -0.5000000000000000000, -0.8660254037844385966, 0.0000000000000000000 ) ) ;
#83 = CARTESIAN_POINT ( 'NONE',  ( 0.0000000000000000000, 0.0000000000000000000, 1.000000000000000000 ) ) ;
#84 = STYLED_ITEM ( 'NONE', ( #4 ), #8 ) ;
#85 = VECTOR ( 'NONE', #135, 39.37007874015748143 ) ;
#86 = EDGE_CURVE ( 'NONE', #229, #171, #148, .T. ) ;
#87 = LENGTH_MEASURE_WITH_UNIT ( LENGTH_MEASURE( 0.02539999999999999897 ), #268 );
#88 = CARTESIAN_POINT ( 'NONE',  ( -0.1443375672974064050, 0.2500000000000000555, 1.000000000000000000 ) ) ;
#89 = CARTESIAN_POINT ( 'NONE',  ( 0.1443375672974065438, -0.2499999999999999167, 1.000000000000000000 ) ) ;
#90 = APPLICATION_CONTEXT ( 'automotive_design' ) ;
#91 = ORIENTED_EDGE ( 'NONE', *, *, #107, .T. ) ;
#92 = VERTEX_POINT ( 'NONE', #3 ) ;
#93 = ORIENTED_EDGE ( 'NONE', *, *, #130, .T. ) ;
#94 = ORIENTED_EDGE ( 'NONE', *, *, #86, .T. ) ;
#95 = CARTESIAN_POINT ( 'NONE',  ( -0.2886751345948128655, 6.809993419335529712E-17, 0.0000000000000000000 ) ) ;
#96 = ADVANCED_FACE ( 'NONE', ( #207 ), #24, .T. ) ;
#97 = EDGE_LOOP ( 'NONE', ( #111, #156, #129, #94 ) ) ;
#98 = VERTEX_POINT ( 'NONE', #185 ) ;
#99 = SHAPE_DEFINITION_REPRESENTATION ( #27, #270 ) ;
#100 = DIRECTION ( 'NONE',  ( 1.000000000000000000, 0.0000000000000000000, -0.0000000000000000000 ) ) ;
#101 =( GEOMETRIC_REPRESENTATION_CONTEXT ( 3 ) GLOBAL_UNCERTAINTY_ASSIGNED_CONTEXT ( ( #302 ) ) GLOBAL_UNIT_ASSIGNED_CONTEXT ( ( #201, #191, #21 ) ) REPRESENTATION_CONTEXT ( 'NONE', 'WORKASPACE' ) );
#102 = STYLED_ITEM ( 'NONE', ( #281 ), #270 ) ;
#103 = CARTESIAN_POINT ( 'NONE',  ( 0.1443375672974065438, -0.2499999999999999167, 0.0000000000000000000 ) ) ;
#104 = CLOSED_SHELL ( 'NONE', ( #262, #136, #66, #109, #63, #96, #235, #282, #162 ) ) ;
#105 = ORIENTED_EDGE ( 'NONE', *, *, #17, .F. ) ;
#106 = ORIENTED_EDGE ( 'NONE', *, *, #172, .T. ) ;
#107 = EDGE_CURVE ( 'NONE', #81, #54, #36, .T. ) ;
#108 = AXIS2_PLACEMENT_3D ( 'NONE', #7, #23, #125 ) ;
#109 = ADVANCED_FACE ( 'NONE', ( #192 ), #73, .T. ) ;
#110 = CARTESIAN_POINT ( 'NONE',  ( -0.1443375672974063217, -0.2499999999999999722, 0.0000000000000000000 ) ) ;
#111 = ORIENTED_EDGE ( 'NONE', *, *, #297, .F. ) ;
#112 = LINE ( 'NONE', #88, #180 ) ;
#113 = FACE_OUTER_BOUND ( 'NONE', #39, .T. ) ;
#114 = SURFACE_SIDE_STYLE ('',( #213 ) ) ;
#115 = DIRECTION ( 'NONE',  ( 0.0000000000000000000, 0.0000000000000000000, 1.000000000000000000 ) ) ;
#116 = DIRECTION ( 'NONE',  ( 0.5000000000000002220, -0.8660254037844384856, 0.0000000000000000000 ) ) ;
#117 = DIRECTION ( 'NONE',  ( -0.0000000000000000000, -0.0000000000000000000, -1.000000000000000000 ) ) ;
#118 = LINE ( 'NONE', #168, #273 ) ;
#119 = ORIENTED_EDGE ( 'NONE', *, *, #122, .F. ) ;
#120 = CARTESIAN_POINT ( 'NONE',  ( -0.2886751345948128655, 6.809993419335529712E-17, 1.000000000000000000 ) ) ;
#121 = ORIENTED_EDGE ( 'NONE', *, *, #64, .T. ) ;
#122 = EDGE_CURVE ( 'NONE', #54, #228, #14, .T. ) ;
#123 = PRODUCT_CONTEXT ( 'NONE', #90, 'mechanical' ) ;
#124 = LINE ( 'NONE', #177, #294 ) ;
#125 = DIRECTION ( 'NONE',  ( 0.5000000000000002220, -0.8660254037844384856, 0.0000000000000000000 ) ) ;
#126 = LENGTH_MEASURE_WITH_UNIT ( LENGTH_MEASURE( 0.02539999999999999897 ), #144 );
#127 = LINE ( 'NONE', #95, #280 ) ;
#128 = PLANE ( 'NONE',  #216 ) ;
#129 = ORIENTED_EDGE ( 'NONE', *, *, #152, .T. ) ;
#130 = EDGE_CURVE ( 'NONE', #139, #50, #127, .T. ) ;
#131 = EDGE_LOOP ( 'NONE', ( #105, #119, #78, #256 ) ) ;
#132 = LINE ( 'NONE', #288, #76 ) ;
#133 = CARTESIAN_POINT ( 'NONE',  ( -0.1443375672974064050, 0.2500000000000000555, 1.000000000000000000 ) ) ;
#134 = PRODUCT_DEFINITION_CONTEXT ( 'detailed design', #198, 'design' ) ;
#135 = DIRECTION ( 'NONE',  ( -0.0000000000000000000, -0.0000000000000000000, -1.000000000000000000 ) ) ;
#136 = ADVANCED_FACE ( 'NONE', ( #20, #142 ), #170, .F. ) ;
#137 = PRODUCT_DEFINITION_FORMATION_WITH_SPECIFIED_SOURCE ( 'ANY', '', #155, .NOT_KNOWN. ) ;
#138 = DIRECTION ( 'NONE',  ( 1.000000000000000000, 1.182924880895401264E-16, 0.0000000000000000000 ) ) ;
#139 = VERTEX_POINT ( 'NONE', #286 ) ;
#140 = SURFACE_STYLE_USAGE ( .BOTH. , #114 ) ;
#141 = DIRECTION ( 'NONE',  ( -0.5000000000000002220, 0.8660254037844384856, 0.0000000000000000000 ) ) ;
#142 = FACE_BOUND ( 'NONE', #215, .T. ) ;
#143 = DIMENSIONAL_EXPONENTS ( 1.000000000000000000, 0.0000000000000000000, 0.0000000000000000000, 0.0000000000000000000, 0.0000000000000000000, 0.0000000000000000000, 0.0000000000000000000 ) ;
#144 =( LENGTH_UNIT ( ) NAMED_UNIT ( * ) SI_UNIT ( $, .METRE. ) );
#145 = CARTESIAN_POINT ( 'NONE',  ( 0.2886751345948129210, -3.392667169346791278E-17, 1.000000000000000000 ) ) ;
#146 = AXIS2_PLACEMENT_3D ( 'NONE', #218, #267, #153 ) ;
#147 =( GEOMETRIC_REPRESENTATION_CONTEXT ( 3 ) GLOBAL_UNCERTAINTY_ASSIGNED_CONTEXT ( ( #260 ) ) GLOBAL_UNIT_ASSIGNED_CONTEXT ( ( #195, #296, #285 ) ) REPRESENTATION_CONTEXT ( 'NONE', 'WORKASPACE' ) );
#148 = LINE ( 'NONE', #35, #261 ) ;
#149 = CARTESIAN_POINT ( 'NONE',  ( 0.2886751345948129210, -3.392667169346791278E-17, 0.0000000000000000000 ) ) ;
#150 = DIRECTION ( 'NONE',  ( -0.0000000000000000000, -0.0000000000000000000, -1.000000000000000000 ) ) ;
#151 = LINE ( 'NONE', #187, #221 ) ;
#152 = EDGE_CURVE ( 'NONE', #60, #229, #151, .T. ) ;
#153 = DIRECTION ( 'NONE',  ( 1.000000000000000000, 0.0000000000000000000, 0.0000000000000000000 ) ) ;
#154 = EDGE_CURVE ( 'NONE', #214, #139, #40, .T. ) ;
#155 = PRODUCT ( 'am-3948-1000 500H x 1000IN Spacer', 'am-3948-1000 500H x 1000IN Spacer', '', ( #123 ) ) ;
#156 = ORIENTED_EDGE ( 'NONE', *, *, #9, .F. ) ;
#157 = DIRECTION ( 'NONE',  ( 0.0000000000000000000, -1.000000000000000000, 0.0000000000000000000 ) ) ;
#158 = CIRCLE ( 'NONE', #146, 0.3937007874015748254 ) ;
#159 = MECHANICAL_DESIGN_GEOMETRIC_PRESENTATION_REPRESENTATION (  '', ( #102 ), #176 ) ;
#160 = ORIENTED_EDGE ( 'NONE', *, *, #12, .F. ) ;
#161 = FACE_OUTER_BOUND ( 'NONE', #241, .T. ) ;
#162 = ADVANCED_FACE ( 'NONE', ( #161 ), #234, .T. ) ;
#163 = DIRECTION ( 'NONE',  ( -1.000000000000000000, -1.182924880895401264E-16, 0.0000000000000000000 ) ) ;
#164 = DIRECTION ( 'NONE',  ( 0.5000000000000002220, -0.8660254037844384856, 0.0000000000000000000 ) ) ;
#165 = VECTOR ( 'NONE', #47, 39.37007874015749564 ) ;
#166 = ORIENTED_EDGE ( 'NONE', *, *, #297, .T. ) ;
#167 = FILL_AREA_STYLE_COLOUR ( '', #169 ) ;
#168 = CARTESIAN_POINT ( 'NONE',  ( 0.1443375672974065438, -0.2499999999999999167, 1.000000000000000000 ) ) ;
#169 = COLOUR_RGB ( '',1.000000000000000000, 1.000000000000000000, 1.000000000000000000 ) ;
#170 = PLANE ( 'NONE',  #204 ) ;
#171 = VERTEX_POINT ( 'NONE', #11 ) ;
#172 = EDGE_CURVE ( 'NONE', #92, #92, #158, .T. ) ;
#173 = ORIENTED_EDGE ( 'NONE', *, *, #64, .F. ) ;
#174 = PRESENTATION_LAYER_ASSIGNMENT (  '', '', ( #102 ) ) ;
#175 = VECTOR ( 'NONE', #230, 39.37007874015748854 ) ;
#176 =( GEOMETRIC_REPRESENTATION_CONTEXT ( 3 ) GLOBAL_UNCERTAINTY_ASSIGNED_CONTEXT ( ( #209 ) ) GLOBAL_UNIT_ASSIGNED_CONTEXT ( ( #211, #71, #239 ) ) REPRESENTATION_CONTEXT ( 'NONE', 'WORKASPACE' ) );
#177 = CARTESIAN_POINT ( 'NONE',  ( 0.1443375672974063217, 0.2500000000000000555, 1.000000000000000000 ) ) ;
#178 = ORIENTED_EDGE ( 'NONE', *, *, #226, .F. ) ;
#179 = ORIENTED_EDGE ( 'NONE', *, *, #231, .T. ) ;
#180 = VECTOR ( 'NONE', #82, 39.37007874015748854 ) ;
#181 = PLANE ( 'NONE',  #227 ) ;
#182 = ORIENTED_EDGE ( 'NONE', *, *, #154, .T. ) ;
#183 = EDGE_LOOP ( 'NONE', ( #188, #45, #121, #258 ) ) ;
#184 = ORIENTED_EDGE ( 'NONE', *, *, #226, .T. ) ;
#185 = CARTESIAN_POINT ( 'NONE',  ( 0.3937007874015748254, 0.0000000000000000000, 0.0000000000000000000 ) ) ;
#186 = FILL_AREA_STYLE ('',( #290 ) ) ;
#187 = CARTESIAN_POINT ( 'NONE',  ( 0.2886751345948129210, -3.392667169346791278E-17, 1.000000000000000000 ) ) ;
#188 = ORIENTED_EDGE ( 'NONE', *, *, #130, .F. ) ;
#189 = FACE_OUTER_BOUND ( 'NONE', #183, .T. ) ;
#190 = APPLICATION_PROTOCOL_DEFINITION ( 'draft international standard', 'automotive_design', 1998, #90 ) ;
#191 =( NAMED_UNIT ( * ) PLANE_ANGLE_UNIT ( ) SI_UNIT ( $, .RADIAN. ) );
#192 = FACE_OUTER_BOUND ( 'NONE', #131, .T. ) ;
#193 = DIRECTION ( 'NONE',  ( -0.0000000000000000000, -0.0000000000000000000, -1.000000000000000000 ) ) ;
#194 = DIRECTION ( 'NONE',  ( 0.0000000000000000000, -0.0000000000000000000, -1.000000000000000000 ) ) ;
#195 =( CONVERSION_BASED_UNIT ( 'INCH', #126 ) LENGTH_UNIT ( ) NAMED_UNIT ( #202 ) );
#196 = VECTOR ( 'NONE', #138, 39.37007874015748143 ) ;
#197 = ORIENTED_EDGE ( 'NONE', *, *, #249, .F. ) ;
#198 = APPLICATION_CONTEXT ( 'automotive_design' ) ;
#199 = SURFACE_STYLE_FILL_AREA ( #186 ) ;
#200 = LINE ( 'NONE', #307, #175 ) ;
#201 =( CONVERSION_BASED_UNIT ( 'INCH', #87 ) LENGTH_UNIT ( ) NAMED_UNIT ( #13 ) );
#202 = DIMENSIONAL_EXPONENTS ( 1.000000000000000000, 0.0000000000000000000, 0.0000000000000000000, 0.0000000000000000000, 0.0000000000000000000, 0.0000000000000000000, 0.0000000000000000000 ) ;
#203 = CARTESIAN_POINT ( 'NONE',  ( 0.0000000000000000000, 0.0000000000000000000, 0.0000000000000000000 ) ) ;
#204 = AXIS2_PLACEMENT_3D ( 'NONE', #203, #295, #28 ) ;
#205 = DIRECTION ( 'NONE',  ( 0.8660254037844385966, -0.5000000000000001110, 0.0000000000000000000 ) ) ;
#206 = AXIS2_PLACEMENT_3D ( 'NONE', #53, #1, #100 ) ;
#207 = FACE_OUTER_BOUND ( 'NONE', #246, .T. ) ;
#208 = VECTOR ( 'NONE', #287, 39.37007874015748143 ) ;
#209 = UNCERTAINTY_MEASURE_WITH_UNIT (LENGTH_MEASURE( 1.000000000000000082E-05 ), #211, 'distance_accuracy_value', 'NONE');
#210 = CARTESIAN_POINT ( 'NONE',  ( 0.1443375672974063217, 0.2500000000000000555, 0.0000000000000000000 ) ) ;
#211 =( CONVERSION_BASED_UNIT ( 'INCH', #277 ) LENGTH_UNIT ( ) NAMED_UNIT ( #143 ) );
#212 = EDGE_LOOP ( 'NONE', ( #184 ) ) ;
#213 = SURFACE_STYLE_FILL_AREA ( #264 ) ;
#214 = VERTEX_POINT ( 'NONE', #77 ) ;
#215 = EDGE_LOOP ( 'NONE', ( #309, #166, #251, #72, #93, #257 ) ) ;
#216 = AXIS2_PLACEMENT_3D ( 'NONE', #240, #283, #141 ) ;
#217 = DIRECTION ( 'NONE',  ( -0.8660254037844387076, 0.4999999999999999445, 0.0000000000000000000 ) ) ;
#218 = CARTESIAN_POINT ( 'NONE',  ( 0.0000000000000000000, 0.0000000000000000000, 1.000000000000000000 ) ) ;
#219 = AXIS2_PLACEMENT_3D ( 'NONE', #83, #150, #62 ) ;
#220 = ORIENTED_EDGE ( 'NONE', *, *, #86, .F. ) ;
#221 = VECTOR ( 'NONE', #308, 39.37007874015749564 ) ;
#222 = CARTESIAN_POINT ( 'NONE',  ( -0.1443375672974063217, -0.2499999999999999722, 1.000000000000000000 ) ) ;
#223 = ORIENTED_EDGE ( 'NONE', *, *, #266, .T. ) ;
#224 = AXIS2_PLACEMENT_3D ( 'NONE', #232, #217, #292 ) ;
#225 = SURFACE_SIDE_STYLE ('',( #199 ) ) ;
#226 = EDGE_CURVE ( 'NONE', #98, #98, #33, .T. ) ;
#227 = AXIS2_PLACEMENT_3D ( 'NONE', #133, #205, #41 ) ;
#228 = VERTEX_POINT ( 'NONE', #30 ) ;
#229 = VERTEX_POINT ( 'NONE', #25 ) ;
#230 = DIRECTION ( 'NONE',  ( -0.5000000000000000000, -0.8660254037844385966, 0.0000000000000000000 ) ) ;
#231 = EDGE_CURVE ( 'NONE', #244, #214, #112, .T. ) ;
#232 = CARTESIAN_POINT ( 'NONE',  ( 0.1443375672974065438, -0.2499999999999999167, 1.000000000000000000 ) ) ;
#233 = ORIENTED_EDGE ( 'NONE', *, *, #263, .T. ) ;
#234 = PLANE ( 'NONE',  #293 ) ;
#235 = ADVANCED_FACE ( 'NONE', ( #237 ), #181, .T. ) ;
#236 = DIRECTION ( 'NONE',  ( 1.000000000000000000, 0.0000000000000000000, 0.0000000000000000000 ) ) ;
#237 = FACE_OUTER_BOUND ( 'NONE', #299, .T. ) ;
#238 = LINE ( 'NONE', #306, #208 ) ;
#239 =( NAMED_UNIT ( * ) SI_UNIT ( $, .STERADIAN. ) SOLID_ANGLE_UNIT ( ) );
#240 = CARTESIAN_POINT ( 'NONE',  ( -0.2886751345948128655, 6.809993419335529712E-17, 1.000000000000000000 ) ) ;
#241 = EDGE_LOOP ( 'NONE', ( #46, #259, #91, #284 ) ) ;
#242 = EDGE_CURVE ( 'NONE', #34, #139, #200, .T. ) ;
#243 = FACE_OUTER_BOUND ( 'NONE', #97, .T. ) ;
#244 = VERTEX_POINT ( 'NONE', #48 ) ;
#245 = MECHANICAL_DESIGN_GEOMETRIC_PRESENTATION_REPRESENTATION (  '', ( #84 ), #147 ) ;
#246 = EDGE_LOOP ( 'NONE', ( #197, #220, #223, #233 ) ) ;
#247 = FACE_BOUND ( 'NONE', #52, .T. ) ;
#248 = EDGE_CURVE ( 'NONE', #81, #50, #49, .T. ) ;
#249 = EDGE_CURVE ( 'NONE', #171, #34, #59, .T. ) ;
#250 = LINE ( 'NONE', #145, #298 ) ;
#251 = ORIENTED_EDGE ( 'NONE', *, *, #249, .T. ) ;
#252 = ORIENTED_EDGE ( 'NONE', *, *, #242, .F. ) ;
#253 = DIRECTION ( 'NONE',  ( -0.0000000000000000000, -0.0000000000000000000, -1.000000000000000000 ) ) ;
#254 = ORIENTED_EDGE ( 'NONE', *, *, #172, .F. ) ;
#255 = FACE_OUTER_BOUND ( 'NONE', #58, .T. ) ;
#256 = ORIENTED_EDGE ( 'NONE', *, *, #9, .T. ) ;
#257 = ORIENTED_EDGE ( 'NONE', *, *, #37, .T. ) ;
#258 = ORIENTED_EDGE ( 'NONE', *, *, #248, .T. ) ;
#259 = ORIENTED_EDGE ( 'NONE', *, *, #248, .F. ) ;
#260 = UNCERTAINTY_MEASURE_WITH_UNIT (LENGTH_MEASURE( 1.000000000000000082E-05 ), #195, 'distance_accuracy_value', 'NONE');
#261 = VECTOR ( 'NONE', #51, 39.37007874015748143 ) ;
#262 = ADVANCED_FACE ( 'NONE', ( #255, #247 ), #275, .T. ) ;
#263 = EDGE_CURVE ( 'NONE', #244, #34, #132, .T. ) ;
#264 = FILL_AREA_STYLE ('',( #167 ) ) ;
#265 = DIRECTION ( 'NONE',  ( -1.000000000000000000, 0.0000000000000000000, 0.0000000000000000000 ) ) ;
#266 = EDGE_CURVE ( 'NONE', #229, #244, #124, .T. ) ;
#267 = DIRECTION ( 'NONE',  ( 0.0000000000000000000, 0.0000000000000000000, 1.000000000000000000 ) ) ;
#268 =( LENGTH_UNIT ( ) NAMED_UNIT ( * ) SI_UNIT ( $, .METRE. ) );
#269 = SURFACE_STYLE_USAGE ( .BOTH. , #225 ) ;
#270 = ADVANCED_BREP_SHAPE_REPRESENTATION ( 'am-3948-1000 500H x 1000IN Spacer', ( #8, #26 ), #101 ) ;
#271 = ORIENTED_EDGE ( 'NONE', *, *, #107, .F. ) ;
#272 = CARTESIAN_POINT ( 'NONE',  ( 0.0000000000000000000, 0.0000000000000000000, 0.0000000000000000000 ) ) ;
#273 = VECTOR ( 'NONE', #44, 39.37007874015748854 ) ;
#274 = VECTOR ( 'NONE', #289, 39.37007874015748143 ) ;
#275 = PLANE ( 'NONE',  #206 ) ;
#276 = VECTOR ( 'NONE', #279, 39.37007874015748854 ) ;
#277 = LENGTH_MEASURE_WITH_UNIT ( LENGTH_MEASURE( 0.02539999999999999897 ), #19 );
#278 = CARTESIAN_POINT ( 'NONE',  ( -0.2886751345948128655, 6.809993419335529712E-17, 1.000000000000000000 ) ) ;
#279 = DIRECTION ( 'NONE',  ( 0.4999999999999998890, 0.8660254037844385966, 0.0000000000000000000 ) ) ;
#280 = VECTOR ( 'NONE', #116, 39.37007874015749564 ) ;
#281 = PRESENTATION_STYLE_ASSIGNMENT (( #140 ) ) ;
#282 = ADVANCED_FACE ( 'NONE', ( #189 ), #128, .T. ) ;
#283 = DIRECTION ( 'NONE',  ( 0.8660254037844385966, 0.5000000000000003331, -0.0000000000000000000 ) ) ;
#284 = ORIENTED_EDGE ( 'NONE', *, *, #122, .T. ) ;
#285 =( NAMED_UNIT ( * ) SI_UNIT ( $, .STERADIAN. ) SOLID_ANGLE_UNIT ( ) );
#286 = CARTESIAN_POINT ( 'NONE',  ( -0.2886751345948128655, 6.809993419335529712E-17, 0.0000000000000000000 ) ) ;
#287 = DIRECTION ( 'NONE',  ( 1.000000000000000000, 1.182924880895401264E-16, 0.0000000000000000000 ) ) ;
#288 = CARTESIAN_POINT ( 'NONE',  ( -0.1443375672974064050, 0.2500000000000000555, 1.000000000000000000 ) ) ;
#289 = DIRECTION ( 'NONE',  ( -0.0000000000000000000, -0.0000000000000000000, -1.000000000000000000 ) ) ;
#290 = FILL_AREA_STYLE_COLOUR ( '', #22 ) ;
#291 = CARTESIAN_POINT ( 'NONE',  ( 0.2886751345948129210, -3.392667169346791278E-17, 0.0000000000000000000 ) ) ;
#292 = DIRECTION ( 'NONE',  ( -0.4999999999999998890, -0.8660254037844385966, 0.0000000000000000000 ) ) ;
#293 = AXIS2_PLACEMENT_3D ( 'NONE', #43, #15, #163 ) ;
#294 = VECTOR ( 'NONE', #265, 39.37007874015748143 ) ;
#295 = DIRECTION ( 'NONE',  ( 0.0000000000000000000, 0.0000000000000000000, 1.000000000000000000 ) ) ;
#296 =( NAMED_UNIT ( * ) PLANE_ANGLE_UNIT ( ) SI_UNIT ( $, .RADIAN. ) );
#297 = EDGE_CURVE ( 'NONE', #304, #171, #68, .T. ) ;
#298 = VECTOR ( 'NONE', #193, 39.37007874015748143 ) ;
#299 = EDGE_LOOP ( 'NONE', ( #252, #6, #179, #182 ) ) ;
#300 = FACE_OUTER_BOUND ( 'NONE', #212, .T. ) ;
#301 = APPLICATION_PROTOCOL_DEFINITION ( 'draft international standard', 'automotive_design', 1998, #198 ) ;
#302 = UNCERTAINTY_MEASURE_WITH_UNIT (LENGTH_MEASURE( 1.000000000000000082E-05 ), #201, 'distance_accuracy_value', 'NONE');
#303 = PRESENTATION_LAYER_ASSIGNMENT (  '', '', ( #84 ) ) ;
#304 = VERTEX_POINT ( 'NONE', #291 ) ;
#305 = VECTOR ( 'NONE', #80, 39.37007874015748143 ) ;
#306 = CARTESIAN_POINT ( 'NONE',  ( -0.1443375672974063217, -0.2499999999999999722, 0.0000000000000000000 ) ) ;
#307 = CARTESIAN_POINT ( 'NONE',  ( -0.1443375672974064050, 0.2500000000000000555, 0.0000000000000000000 ) ) ;
#308 = DIRECTION ( 'NONE',  ( -0.5000000000000002220, 0.8660254037844384856, 0.0000000000000000000 ) ) ;
#309 = ORIENTED_EDGE ( 'NONE', *, *, #17, .T. ) ;
#310 = CARTESIAN_POINT ( 'NONE',  ( 0.2886751345948129210, -3.392667169346791278E-17, 1.000000000000000000 ) ) ;
#311 = CARTESIAN_POINT ( 'NONE',  ( 0.1443375672974063217, 0.2500000000000000555, 1.000000000000000000 ) ) ;
ENDSEC;
END-ISO-10303-21;
