ISO-10303-21;
HEADER;
FILE_DESCRIPTION (( 'STEP AP214' ),
    '1' );
FILE_NAME ('am-3948-500 500H x 500IN Spacer.STEP',
    '2018-09-24T21:08:28',
    ( '' ),
    ( '' ),
    'SwSTEP 2.0',
    'SolidWorks 2018',
    '' );
FILE_SCHEMA (( 'AUTOMOTIVE_DESIGN' ));
ENDSEC;

DATA;
#1 = STYLED_ITEM ( 'NONE', ( #83 ), #133 ) ;
#2 = COLOUR_RGB ( '',1.000000000000000000, 1.000000000000000000, 1.000000000000000000 ) ;
#3 = ADVANCED_FACE ( 'NONE', ( #124 ), #137, .T. ) ;
#4 = ORIENTED_EDGE ( 'NONE', *, *, #32, .F. ) ;
#5 = FILL_AREA_STYLE ('',( #13 ) ) ;
#6 = DIRECTION ( 'NONE',  ( -0.0000000000000000000, -0.0000000000000000000, -1.000000000000000000 ) ) ;
#7 =( GEOMETRIC_REPRESENTATION_CONTEXT ( 3 ) GLOBAL_UNCERTAINTY_ASSIGNED_CONTEXT ( ( #274 ) ) GLOBAL_UNIT_ASSIGNED_CONTEXT ( ( #27, #191, #114 ) ) REPRESENTATION_CONTEXT ( 'NONE', 'WORKASPACE' ) );
#8 = ORIENTED_EDGE ( 'NONE', *, *, #85, .F. ) ;
#9 = CARTESIAN_POINT ( 'NONE',  ( 0.1443375672974065438, -0.2499999999999999167, 0.5000000000000000000 ) ) ;
#10 = EDGE_CURVE ( 'NONE', #126, #68, #100, .T. ) ;
#11 = LENGTH_MEASURE_WITH_UNIT ( LENGTH_MEASURE( 0.02539999999999999897 ), #93 );
#12 = PRESENTATION_LAYER_ASSIGNMENT (  '', '', ( #1 ) ) ;
#13 = FILL_AREA_STYLE_COLOUR ( '', #57 ) ;
#14 = ORIENTED_EDGE ( 'NONE', *, *, #76, .T. ) ;
#15 = EDGE_LOOP ( 'NONE', ( #43, #234, #108, #55 ) ) ;
#16 = CARTESIAN_POINT ( 'NONE',  ( -0.1443375672974063217, -0.2499999999999999722, 0.5000000000000000000 ) ) ;
#17 = LENGTH_MEASURE_WITH_UNIT ( LENGTH_MEASURE( 0.02539999999999999897 ), #151 );
#18 = ORIENTED_EDGE ( 'NONE', *, *, #127, .T. ) ;
#19 = PRODUCT_DEFINITION_CONTEXT ( 'detailed design', #159, 'design' ) ;
#20 = DIRECTION ( 'NONE',  ( -0.8660254037844387076, 0.4999999999999999445, 0.0000000000000000000 ) ) ;
#21 = EDGE_CURVE ( 'NONE', #242, #242, #88, .T. ) ;
#22 = VERTEX_POINT ( 'NONE', #160 ) ;
#23 = AXIS2_PLACEMENT_3D ( 'NONE', #254, #280, #213 ) ;
#24 = CLOSED_SHELL ( 'NONE', ( #200, #232, #226, #209, #75, #218, #3, #284, #273 ) ) ;
#25 = ORIENTED_EDGE ( 'NONE', *, *, #119, .F. ) ;
#26 = LINE ( 'NONE', #178, #128 ) ;
#27 =( CONVERSION_BASED_UNIT ( 'INCH', #256 ) LENGTH_UNIT ( ) NAMED_UNIT ( #87 ) );
#28 = AXIS2_PLACEMENT_3D ( 'NONE', #123, #251, #261 ) ;
#29 = VERTEX_POINT ( 'NONE', #33 ) ;
#30 = CARTESIAN_POINT ( 'NONE',  ( 0.1443375672974063217, 0.2500000000000000555, 0.5000000000000000000 ) ) ;
#31 = ORIENTED_EDGE ( 'NONE', *, *, #285, .T. ) ;
#32 = EDGE_CURVE ( 'NONE', #233, #132, #86, .T. ) ;
#33 = CARTESIAN_POINT ( 'NONE',  ( 0.1443375672974065438, -0.2499999999999999167, 0.5000000000000000000 ) ) ;
#34 = ORIENTED_EDGE ( 'NONE', *, *, #301, .T. ) ;
#35 = EDGE_LOOP ( 'NONE', ( #205 ) ) ;
#36 = ORIENTED_EDGE ( 'NONE', *, *, #76, .F. ) ;
#37 = ORIENTED_EDGE ( 'NONE', *, *, #204, .T. ) ;
#38 = LINE ( 'NONE', #72, #103 ) ;
#39 = ORIENTED_EDGE ( 'NONE', *, *, #229, .F. ) ;
#40 = DIRECTION ( 'NONE',  ( -0.5000000000000000000, -0.8660254037844385966, 0.0000000000000000000 ) ) ;
#41 = ORIENTED_EDGE ( 'NONE', *, *, #102, .T. ) ;
#42 = EDGE_LOOP ( 'NONE', ( #36, #237, #34, #31 ) ) ;
#43 = ORIENTED_EDGE ( 'NONE', *, *, #116, .F. ) ;
#44 = UNCERTAINTY_MEASURE_WITH_UNIT (LENGTH_MEASURE( 1.000000000000000082E-05 ), #185, 'distance_accuracy_value', 'NONE');
#45 = DIRECTION ( 'NONE',  ( -0.5000000000000002220, 0.8660254037844384856, 0.0000000000000000000 ) ) ;
#46 = SURFACE_STYLE_USAGE ( .BOTH. , #171 ) ;
#47 = CARTESIAN_POINT ( 'NONE',  ( -0.2886751345948128655, 6.809993419335529712E-17, 0.5000000000000000000 ) ) ;
#48 = DIRECTION ( 'NONE',  ( -0.0000000000000000000, -0.0000000000000000000, -1.000000000000000000 ) ) ;
#49 = VERTEX_POINT ( 'NONE', #247 ) ;
#50 =( NAMED_UNIT ( * ) PLANE_ANGLE_UNIT ( ) SI_UNIT ( $, .RADIAN. ) );
#51 = CARTESIAN_POINT ( 'NONE',  ( -0.1443375672974064050, 0.2500000000000000555, 0.5000000000000000000 ) ) ;
#52 = EDGE_CURVE ( 'NONE', #121, #49, #38, .T. ) ;
#53 = CARTESIAN_POINT ( 'NONE',  ( 0.1443375672974065438, -0.2499999999999999167, 0.0000000000000000000 ) ) ;
#54 = VERTEX_POINT ( 'NONE', #47 ) ;
#55 = ORIENTED_EDGE ( 'NONE', *, *, #267, .T. ) ;
#56 = CARTESIAN_POINT ( 'NONE',  ( -0.2886751345948128655, 6.809993419335529712E-17, 0.5000000000000000000 ) ) ;
#57 = COLOUR_RGB ( '',1.000000000000000000, 1.000000000000000000, 1.000000000000000000 ) ;
#58 = PRODUCT ( 'am-3948-500 500H x 500IN Spacer', 'am-3948-500 500H x 500IN Spacer', '', ( #143 ) ) ;
#59 = FACE_OUTER_BOUND ( 'NONE', #250, .T. ) ;
#60 = MECHANICAL_DESIGN_GEOMETRIC_PRESENTATION_REPRESENTATION (  '', ( #1 ), #7 ) ;
#61 = CARTESIAN_POINT ( 'NONE',  ( 0.2886751345948129210, -3.392667169346791278E-17, 0.5000000000000000000 ) ) ;
#62 = VERTEX_POINT ( 'NONE', #176 ) ;
#63 = STYLED_ITEM ( 'NONE', ( #175 ), #192 ) ;
#64 = CARTESIAN_POINT ( 'NONE',  ( 0.0000000000000000000, 0.0000000000000000000, 0.5000000000000000000 ) ) ;
#65 =( NAMED_UNIT ( * ) SI_UNIT ( $, .STERADIAN. ) SOLID_ANGLE_UNIT ( ) );
#66 = VECTOR ( 'NONE', #6, 39.37007874015748143 ) ;
#67 = LINE ( 'NONE', #162, #189 ) ;
#68 = VERTEX_POINT ( 'NONE', #243 ) ;
#69 = ORIENTED_EDGE ( 'NONE', *, *, #89, .F. ) ;
#70 = CARTESIAN_POINT ( 'NONE',  ( -0.1443375672974063217, -0.2499999999999999722, 0.5000000000000000000 ) ) ;
#71 = DIRECTION ( 'NONE',  ( -1.000000000000000000, 0.0000000000000000000, 0.0000000000000000000 ) ) ;
#72 = CARTESIAN_POINT ( 'NONE',  ( -0.2886751345948128655, 6.809993419335529712E-17, 0.0000000000000000000 ) ) ;
#73 = CARTESIAN_POINT ( 'NONE',  ( 0.3937007874015748254, 0.0000000000000000000, 0.0000000000000000000 ) ) ;
#74 = DIRECTION ( 'NONE',  ( 0.5000000000000002220, -0.8660254037844384856, 0.0000000000000000000 ) ) ;
#75 = ADVANCED_FACE ( 'NONE', ( #183 ), #294, .T. ) ;
#76 = EDGE_CURVE ( 'NONE', #68, #121, #238, .T. ) ;
#77 = PRODUCT_DEFINITION_SHAPE ( 'NONE', 'NONE',  #231 ) ;
#78 = DIRECTION ( 'NONE',  ( -0.8660254037844385966, -0.5000000000000003331, 0.0000000000000000000 ) ) ;
#79 = VECTOR ( 'NONE', #283, 39.37007874015748854 ) ;
#80 = ORIENTED_EDGE ( 'NONE', *, *, #214, .F. ) ;
#81 = DIRECTION ( 'NONE',  ( -0.0000000000000000000, -0.0000000000000000000, -1.000000000000000000 ) ) ;
#82 = ORIENTED_EDGE ( 'NONE', *, *, #141, .T. ) ;
#83 = PRESENTATION_STYLE_ASSIGNMENT (( #302 ) ) ;
#84 = VECTOR ( 'NONE', #40, 39.37007874015748854 ) ;
#85 = EDGE_CURVE ( 'NONE', #29, #22, #115, .T. ) ;
#86 = LINE ( 'NONE', #170, #136 ) ;
#87 = DIMENSIONAL_EXPONENTS ( 1.000000000000000000, 0.0000000000000000000, 0.0000000000000000000, 0.0000000000000000000, 0.0000000000000000000, 0.0000000000000000000, 0.0000000000000000000 ) ;
#88 = CIRCLE ( 'NONE', #190, 0.3937007874015748254 ) ;
#89 = EDGE_CURVE ( 'NONE', #62, #29, #95, .T. ) ;
#90 = ORIENTED_EDGE ( 'NONE', *, *, #229, .T. ) ;
#91 = DIRECTION ( 'NONE',  ( 0.0000000000000000000, 0.0000000000000000000, 1.000000000000000000 ) ) ;
#92 = CARTESIAN_POINT ( 'NONE',  ( 0.2886751345948129210, -3.392667169346791278E-17, 0.0000000000000000000 ) ) ;
#93 =( LENGTH_UNIT ( ) NAMED_UNIT ( * ) SI_UNIT ( $, .METRE. ) );
#94 = LINE ( 'NONE', #228, #163 ) ;
#95 = LINE ( 'NONE', #70, #131 ) ;
#96 = DIMENSIONAL_EXPONENTS ( 1.000000000000000000, 0.0000000000000000000, 0.0000000000000000000, 0.0000000000000000000, 0.0000000000000000000, 0.0000000000000000000, 0.0000000000000000000 ) ;
#97 = ORIENTED_EDGE ( 'NONE', *, *, #277, .F. ) ;
#98 = LINE ( 'NONE', #92, #289 ) ;
#99 = PLANE ( 'NONE',  #311 ) ;
#100 = LINE ( 'NONE', #215, #112 ) ;
#101 = LINE ( 'NONE', #122, #223 ) ;
#102 = EDGE_CURVE ( 'NONE', #22, #142, #107, .T. ) ;
#103 = VECTOR ( 'NONE', #74, 39.37007874015749564 ) ;
#104 = AXIS2_PLACEMENT_3D ( 'NONE', #230, #275, #203 ) ;
#105 = SURFACE_STYLE_FILL_AREA ( #109 ) ;
#106 = FACE_OUTER_BOUND ( 'NONE', #194, .T. ) ;
#107 = LINE ( 'NONE', #120, #166 ) ;
#108 = ORIENTED_EDGE ( 'NONE', *, *, #89, .T. ) ;
#109 = FILL_AREA_STYLE ('',( #197 ) ) ;
#110 = DIRECTION ( 'NONE',  ( -1.000000000000000000, 0.0000000000000000000, 0.0000000000000000000 ) ) ;
#111 = ORIENTED_EDGE ( 'NONE', *, *, #301, .F. ) ;
#112 = VECTOR ( 'NONE', #150, 39.37007874015748143 ) ;
#113 = SURFACE_STYLE_FILL_AREA ( #5 ) ;
#114 =( NAMED_UNIT ( * ) SI_UNIT ( $, .STERADIAN. ) SOLID_ANGLE_UNIT ( ) );
#115 = LINE ( 'NONE', #257, #118 ) ;
#116 = EDGE_CURVE ( 'NONE', #49, #210, #67, .T. ) ;
#117 = DIRECTION ( 'NONE',  ( 0.0000000000000000000, 0.0000000000000000000, 1.000000000000000000 ) ) ;
#118 = VECTOR ( 'NONE', #290, 39.37007874015748854 ) ;
#119 = EDGE_CURVE ( 'NONE', #22, #233, #165, .T. ) ;
#120 = CARTESIAN_POINT ( 'NONE',  ( 0.2886751345948129210, -3.392667169346791278E-17, 0.5000000000000000000 ) ) ;
#121 = VERTEX_POINT ( 'NONE', #188 ) ;
#122 = CARTESIAN_POINT ( 'NONE',  ( -0.2886751345948128655, 6.809993419335529712E-17, 0.5000000000000000000 ) ) ;
#123 = CARTESIAN_POINT ( 'NONE',  ( 0.1443375672974063217, 0.2500000000000000555, 0.5000000000000000000 ) ) ;
#124 = FACE_OUTER_BOUND ( 'NONE', #42, .T. ) ;
#125 = EDGE_LOOP ( 'NONE', ( #97, #297, #299, #253 ) ) ;
#126 = VERTEX_POINT ( 'NONE', #246 ) ;
#127 = EDGE_CURVE ( 'NONE', #62, #49, #169, .T. ) ;
#128 = VECTOR ( 'NONE', #249, 39.37007874015749564 ) ;
#129 =( CONVERSION_BASED_UNIT ( 'INCH', #17 ) LENGTH_UNIT ( ) NAMED_UNIT ( #173 ) );
#130 = DIRECTION ( 'NONE',  ( 0.8660254037844385966, 0.5000000000000003331, -0.0000000000000000000 ) ) ;
#131 = VECTOR ( 'NONE', #270, 39.37007874015748143 ) ;
#132 = VERTEX_POINT ( 'NONE', #271 ) ;
#133 = ADVANCED_BREP_SHAPE_REPRESENTATION ( 'am-3948-500 500H x 500IN Spacer', ( #192, #180 ), #248 ) ;
#134 = FACE_OUTER_BOUND ( 'NONE', #35, .T. ) ;
#135 = DIRECTION ( 'NONE',  ( -0.5000000000000002220, 0.8660254037844384856, 0.0000000000000000000 ) ) ;
#136 = VECTOR ( 'NONE', #110, 39.37007874015748143 ) ;
#137 = PLANE ( 'NONE',  #157 ) ;
#138 = DIRECTION ( 'NONE',  ( 0.5000000000000001110, 0.8660254037844385966, 0.0000000000000000000 ) ) ;
#139 = ORIENTED_EDGE ( 'NONE', *, *, #52, .F. ) ;
#140 = FACE_OUTER_BOUND ( 'NONE', #241, .T. ) ;
#141 = EDGE_CURVE ( 'NONE', #210, #142, #266, .T. ) ;
#142 = VERTEX_POINT ( 'NONE', #154 ) ;
#143 = PRODUCT_CONTEXT ( 'NONE', #195, 'mechanical' ) ;
#144 = MECHANICAL_DESIGN_GEOMETRIC_PRESENTATION_REPRESENTATION (  '', ( #63 ), #148 ) ;
#145 = PLANE ( 'NONE',  #309 ) ;
#146 = DIRECTION ( 'NONE',  ( 1.000000000000000000, 1.182924880895401264E-16, 0.0000000000000000000 ) ) ;
#147 = UNCERTAINTY_MEASURE_WITH_UNIT (LENGTH_MEASURE( 1.000000000000000082E-05 ), #129, 'distance_accuracy_value', 'NONE');
#148 =( GEOMETRIC_REPRESENTATION_CONTEXT ( 3 ) GLOBAL_UNCERTAINTY_ASSIGNED_CONTEXT ( ( #147 ) ) GLOBAL_UNIT_ASSIGNED_CONTEXT ( ( #129, #50, #155 ) ) REPRESENTATION_CONTEXT ( 'NONE', 'WORKASPACE' ) );
#149 = EDGE_CURVE ( 'NONE', #268, #268, #168, .T. ) ;
#150 = DIRECTION ( 'NONE',  ( -1.000000000000000000, 0.0000000000000000000, 0.0000000000000000000 ) ) ;
#151 =( LENGTH_UNIT ( ) NAMED_UNIT ( * ) SI_UNIT ( $, .METRE. ) );
#152 = APPLICATION_PROTOCOL_DEFINITION ( 'draft international standard', 'automotive_design', 1998, #195 ) ;
#153 = ORIENTED_EDGE ( 'NONE', *, *, #141, .F. ) ;
#154 = CARTESIAN_POINT ( 'NONE',  ( 0.2886751345948129210, -3.392667169346791278E-17, 0.0000000000000000000 ) ) ;
#155 =( NAMED_UNIT ( * ) SI_UNIT ( $, .STERADIAN. ) SOLID_ANGLE_UNIT ( ) );
#156 = VECTOR ( 'NONE', #48, 39.37007874015748143 ) ;
#157 = AXIS2_PLACEMENT_3D ( 'NONE', #310, #207, #138 ) ;
#158 = DIRECTION ( 'NONE',  ( -0.0000000000000000000, -0.0000000000000000000, -1.000000000000000000 ) ) ;
#159 = APPLICATION_CONTEXT ( 'automotive_design' ) ;
#160 = CARTESIAN_POINT ( 'NONE',  ( 0.2886751345948129210, -3.392667169346791278E-17, 0.5000000000000000000 ) ) ;
#161 =( NAMED_UNIT ( * ) PLANE_ANGLE_UNIT ( ) SI_UNIT ( $, .RADIAN. ) );
#162 = CARTESIAN_POINT ( 'NONE',  ( -0.1443375672974063217, -0.2499999999999999722, 0.0000000000000000000 ) ) ;
#163 = VECTOR ( 'NONE', #240, 39.37007874015748143 ) ;
#164 = DIRECTION ( 'NONE',  ( 1.000000000000000000, 0.0000000000000000000, 0.0000000000000000000 ) ) ;
#165 = LINE ( 'NONE', #61, #179 ) ;
#166 = VECTOR ( 'NONE', #298, 39.37007874015748143 ) ;
#167 = SHAPE_DEFINITION_REPRESENTATION ( #77, #133 ) ;
#168 = CIRCLE ( 'NONE', #23, 0.3937007874015748254 ) ;
#169 = LINE ( 'NONE', #262, #172 ) ;
#170 = CARTESIAN_POINT ( 'NONE',  ( 0.1443375672974063217, 0.2500000000000000555, 0.5000000000000000000 ) ) ;
#171 = SURFACE_SIDE_STYLE ('',( #105 ) ) ;
#172 = VECTOR ( 'NONE', #81, 39.37007874015748143 ) ;
#173 = DIMENSIONAL_EXPONENTS ( 1.000000000000000000, 0.0000000000000000000, 0.0000000000000000000, 0.0000000000000000000, 0.0000000000000000000, 0.0000000000000000000, 0.0000000000000000000 ) ;
#174 = ORIENTED_EDGE ( 'NONE', *, *, #277, .T. ) ;
#175 = PRESENTATION_STYLE_ASSIGNMENT (( #46 ) ) ;
#176 = CARTESIAN_POINT ( 'NONE',  ( -0.1443375672974063217, -0.2499999999999999722, 0.5000000000000000000 ) ) ;
#177 = ORIENTED_EDGE ( 'NONE', *, *, #52, .T. ) ;
#178 = CARTESIAN_POINT ( 'NONE',  ( -0.2886751345948128655, 6.809993419335529712E-17, 0.5000000000000000000 ) ) ;
#179 = VECTOR ( 'NONE', #135, 39.37007874015749564 ) ;
#180 = AXIS2_PLACEMENT_3D ( 'NONE', #264, #117, #199 ) ;
#181 = CARTESIAN_POINT ( 'NONE',  ( 0.0000000000000000000, 0.0000000000000000000, 0.5000000000000000000 ) ) ;
#182 = PRODUCT_DEFINITION_FORMATION_WITH_SPECIFIED_SOURCE ( 'ANY', '', #58, .NOT_KNOWN. ) ;
#183 = FACE_OUTER_BOUND ( 'NONE', #125, .T. ) ;
#184 =( LENGTH_UNIT ( ) NAMED_UNIT ( * ) SI_UNIT ( $, .METRE. ) );
#185 =( CONVERSION_BASED_UNIT ( 'INCH', #11 ) LENGTH_UNIT ( ) NAMED_UNIT ( #96 ) );
#186 = PLANE ( 'NONE',  #28 ) ;
#187 = ORIENTED_EDGE ( 'NONE', *, *, #21, .T. ) ;
#188 = CARTESIAN_POINT ( 'NONE',  ( -0.2886751345948128655, 6.809993419335529712E-17, 0.0000000000000000000 ) ) ;
#189 = VECTOR ( 'NONE', #146, 39.37007874015748143 ) ;
#190 = AXIS2_PLACEMENT_3D ( 'NONE', #181, #91, #164 ) ;
#191 =( NAMED_UNIT ( * ) PLANE_ANGLE_UNIT ( ) SI_UNIT ( $, .RADIAN. ) );
#192 = MANIFOLD_SOLID_BREP ( 'Boss-Extrude1', #24 ) ;
#193 = CARTESIAN_POINT ( 'NONE',  ( -0.1443375672974064050, 0.2500000000000000555, 0.0000000000000000000 ) ) ;
#194 = EDGE_LOOP ( 'NONE', ( #227 ) ) ;
#195 = APPLICATION_CONTEXT ( 'automotive_design' ) ;
#196 = AXIS2_PLACEMENT_3D ( 'NONE', #9, #20, #224 ) ;
#197 = FILL_AREA_STYLE_COLOUR ( '', #2 ) ;
#198 = EDGE_LOOP ( 'NONE', ( #288 ) ) ;
#199 = DIRECTION ( 'NONE',  ( 1.000000000000000000, 0.0000000000000000000, 0.0000000000000000000 ) ) ;
#200 = ADVANCED_FACE ( 'NONE', ( #245, #212 ), #255, .T. ) ;
#201 = DIRECTION ( 'NONE',  ( -0.0000000000000000000, -0.0000000000000000000, -1.000000000000000000 ) ) ;
#202 = DIRECTION ( 'NONE',  ( -1.000000000000000000, -1.182924880895401264E-16, 0.0000000000000000000 ) ) ;
#203 = DIRECTION ( 'NONE',  ( 1.000000000000000000, 0.0000000000000000000, -0.0000000000000000000 ) ) ;
#204 = EDGE_CURVE ( 'NONE', #132, #68, #236, .T. ) ;
#205 = ORIENTED_EDGE ( 'NONE', *, *, #149, .F. ) ;
#206 = CARTESIAN_POINT ( 'NONE',  ( 0.1443375672974065438, -0.2499999999999999167, 0.0000000000000000000 ) ) ;
#207 = DIRECTION ( 'NONE',  ( 0.8660254037844385966, -0.5000000000000001110, 0.0000000000000000000 ) ) ;
#208 = ORIENTED_EDGE ( 'NONE', *, *, #285, .F. ) ;
#209 = ADVANCED_FACE ( 'NONE', ( #308 ), #287, .T. ) ;
#210 = VERTEX_POINT ( 'NONE', #53 ) ;
#211 = FACE_OUTER_BOUND ( 'NONE', #198, .T. ) ;
#212 = FACE_BOUND ( 'NONE', #263, .T. ) ;
#213 = DIRECTION ( 'NONE',  ( 1.000000000000000000, 0.0000000000000000000, 0.0000000000000000000 ) ) ;
#214 = EDGE_CURVE ( 'NONE', #233, #126, #94, .T. ) ;
#215 = CARTESIAN_POINT ( 'NONE',  ( 0.1443375672974063217, 0.2500000000000000555, 0.0000000000000000000 ) ) ;
#216 = VECTOR ( 'NONE', #278, 39.37007874015748854 ) ;
#217 = ORIENTED_EDGE ( 'NONE', *, *, #32, .T. ) ;
#218 = ADVANCED_FACE ( 'NONE', ( #59 ), #186, .T. ) ;
#219 = APPLICATION_PROTOCOL_DEFINITION ( 'draft international standard', 'automotive_design', 1998, #159 ) ;
#220 = PRODUCT_RELATED_PRODUCT_CATEGORY ( 'part', '', ( #58 ) ) ;
#221 = PLANE ( 'NONE',  #282 ) ;
#222 = CARTESIAN_POINT ( 'NONE',  ( -0.1443375672974064050, 0.2500000000000000555, 0.5000000000000000000 ) ) ;
#223 = VECTOR ( 'NONE', #158, 39.37007874015748143 ) ;
#224 = DIRECTION ( 'NONE',  ( -0.4999999999999998890, -0.8660254037844385966, 0.0000000000000000000 ) ) ;
#225 = EDGE_LOOP ( 'NONE', ( #153, #258, #235, #41 ) ) ;
#226 = ADVANCED_FACE ( 'NONE', ( #211, #106 ), #265, .T. ) ;
#227 = ORIENTED_EDGE ( 'NONE', *, *, #149, .T. ) ;
#228 = CARTESIAN_POINT ( 'NONE',  ( 0.1443375672974063217, 0.2500000000000000555, 0.5000000000000000000 ) ) ;
#229 = EDGE_CURVE ( 'NONE', #54, #62, #26, .T. ) ;
#230 = CARTESIAN_POINT ( 'NONE',  ( 0.0000000000000000000, 0.0000000000000000000, 0.5000000000000000000 ) ) ;
#231 = PRODUCT_DEFINITION ( 'UNKNOWN', '', #182, #19 ) ;
#232 = ADVANCED_FACE ( 'NONE', ( #134, #279 ), #221, .F. ) ;
#233 = VERTEX_POINT ( 'NONE', #30 ) ;
#234 = ORIENTED_EDGE ( 'NONE', *, *, #127, .F. ) ;
#235 = ORIENTED_EDGE ( 'NONE', *, *, #85, .T. ) ;
#236 = LINE ( 'NONE', #51, #156 ) ;
#237 = ORIENTED_EDGE ( 'NONE', *, *, #204, .F. ) ;
#238 = LINE ( 'NONE', #193, #79 ) ;
#239 = EDGE_LOOP ( 'NONE', ( #187 ) ) ;
#240 = DIRECTION ( 'NONE',  ( -0.0000000000000000000, -0.0000000000000000000, -1.000000000000000000 ) ) ;
#241 = EDGE_LOOP ( 'NONE', ( #139, #208, #90, #18 ) ) ;
#242 = VERTEX_POINT ( 'NONE', #281 ) ;
#243 = CARTESIAN_POINT ( 'NONE',  ( -0.1443375672974064050, 0.2500000000000000555, 0.0000000000000000000 ) ) ;
#244 = ORIENTED_EDGE ( 'NONE', *, *, #10, .F. ) ;
#245 = FACE_OUTER_BOUND ( 'NONE', #239, .T. ) ;
#246 = CARTESIAN_POINT ( 'NONE',  ( 0.1443375672974063217, 0.2500000000000000555, 0.0000000000000000000 ) ) ;
#247 = CARTESIAN_POINT ( 'NONE',  ( -0.1443375672974063217, -0.2499999999999999722, 0.0000000000000000000 ) ) ;
#248 =( GEOMETRIC_REPRESENTATION_CONTEXT ( 3 ) GLOBAL_UNCERTAINTY_ASSIGNED_CONTEXT ( ( #44 ) ) GLOBAL_UNIT_ASSIGNED_CONTEXT ( ( #185, #161, #65 ) ) REPRESENTATION_CONTEXT ( 'NONE', 'WORKASPACE' ) );
#249 = DIRECTION ( 'NONE',  ( 0.5000000000000002220, -0.8660254037844384856, 0.0000000000000000000 ) ) ;
#250 = EDGE_LOOP ( 'NONE', ( #244, #80, #217, #37 ) ) ;
#251 = DIRECTION ( 'NONE',  ( 0.0000000000000000000, -1.000000000000000000, 0.0000000000000000000 ) ) ;
#252 = DIRECTION ( 'NONE',  ( -0.5000000000000002220, 0.8660254037844384856, 0.0000000000000000000 ) ) ;
#253 = ORIENTED_EDGE ( 'NONE', *, *, #214, .T. ) ;
#254 = CARTESIAN_POINT ( 'NONE',  ( 0.0000000000000000000, 0.0000000000000000000, 0.0000000000000000000 ) ) ;
#255 = PLANE ( 'NONE',  #104 ) ;
#256 = LENGTH_MEASURE_WITH_UNIT ( LENGTH_MEASURE( 0.02539999999999999897 ), #184 );
#257 = CARTESIAN_POINT ( 'NONE',  ( 0.1443375672974065438, -0.2499999999999999167, 0.5000000000000000000 ) ) ;
#258 = ORIENTED_EDGE ( 'NONE', *, *, #267, .F. ) ;
#259 = DIRECTION ( 'NONE',  ( 0.0000000000000000000, 0.0000000000000000000, 1.000000000000000000 ) ) ;
#260 = FACE_OUTER_BOUND ( 'NONE', #15, .T. ) ;
#261 = DIRECTION ( 'NONE',  ( 0.0000000000000000000, -0.0000000000000000000, -1.000000000000000000 ) ) ;
#262 = CARTESIAN_POINT ( 'NONE',  ( -0.1443375672974063217, -0.2499999999999999722, 0.5000000000000000000 ) ) ;
#263 = EDGE_LOOP ( 'NONE', ( #25, #8, #69, #39, #111, #4 ) ) ;
#264 = CARTESIAN_POINT ( 'NONE',  ( 0.0000000000000000000, 0.0000000000000000000, 0.0000000000000000000 ) ) ;
#265 = CYLINDRICAL_SURFACE ( 'NONE', #295, 0.3937007874015748254 ) ;
#266 = LINE ( 'NONE', #206, #216 ) ;
#267 = EDGE_CURVE ( 'NONE', #29, #210, #307, .T. ) ;
#268 = VERTEX_POINT ( 'NONE', #73 ) ;
#269 = CARTESIAN_POINT ( 'NONE',  ( 0.2886751345948129210, -3.392667169346791278E-17, 0.5000000000000000000 ) ) ;
#270 = DIRECTION ( 'NONE',  ( 1.000000000000000000, 1.182924880895401264E-16, 0.0000000000000000000 ) ) ;
#271 = CARTESIAN_POINT ( 'NONE',  ( -0.1443375672974064050, 0.2500000000000000555, 0.5000000000000000000 ) ) ;
#272 = DIRECTION ( 'NONE',  ( 0.5000000000000002220, -0.8660254037844384856, 0.0000000000000000000 ) ) ;
#273 = ADVANCED_FACE ( 'NONE', ( #260 ), #145, .T. ) ;
#274 = UNCERTAINTY_MEASURE_WITH_UNIT (LENGTH_MEASURE( 1.000000000000000082E-05 ), #27, 'distance_accuracy_value', 'NONE');
#275 = DIRECTION ( 'NONE',  ( 0.0000000000000000000, 0.0000000000000000000, 1.000000000000000000 ) ) ;
#276 = ORIENTED_EDGE ( 'NONE', *, *, #116, .T. ) ;
#277 = EDGE_CURVE ( 'NONE', #142, #126, #98, .T. ) ;
#278 = DIRECTION ( 'NONE',  ( 0.4999999999999998890, 0.8660254037844385966, 0.0000000000000000000 ) ) ;
#279 = FACE_BOUND ( 'NONE', #292, .T. ) ;
#280 = DIRECTION ( 'NONE',  ( 0.0000000000000000000, 0.0000000000000000000, 1.000000000000000000 ) ) ;
#281 = CARTESIAN_POINT ( 'NONE',  ( 0.3937007874015748254, 0.0000000000000000000, 0.5000000000000000000 ) ) ;
#282 = AXIS2_PLACEMENT_3D ( 'NONE', #296, #259, #293 ) ;
#283 = DIRECTION ( 'NONE',  ( -0.5000000000000000000, -0.8660254037844385966, 0.0000000000000000000 ) ) ;
#284 = ADVANCED_FACE ( 'NONE', ( #140 ), #99, .T. ) ;
#285 = EDGE_CURVE ( 'NONE', #54, #121, #101, .T. ) ;
#286 = ORIENTED_EDGE ( 'NONE', *, *, #10, .T. ) ;
#287 = PLANE ( 'NONE',  #196 ) ;
#288 = ORIENTED_EDGE ( 'NONE', *, *, #21, .F. ) ;
#289 = VECTOR ( 'NONE', #252, 39.37007874015749564 ) ;
#290 = DIRECTION ( 'NONE',  ( 0.4999999999999998890, 0.8660254037844385966, 0.0000000000000000000 ) ) ;
#291 = PRESENTATION_LAYER_ASSIGNMENT (  '', '', ( #63 ) ) ;
#292 = EDGE_LOOP ( 'NONE', ( #82, #174, #286, #14, #177, #276 ) ) ;
#293 = DIRECTION ( 'NONE',  ( 1.000000000000000000, 0.0000000000000000000, -0.0000000000000000000 ) ) ;
#294 = PLANE ( 'NONE',  #303 ) ;
#295 = AXIS2_PLACEMENT_3D ( 'NONE', #64, #201, #71 ) ;
#296 = CARTESIAN_POINT ( 'NONE',  ( 0.0000000000000000000, 0.0000000000000000000, 0.0000000000000000000 ) ) ;
#297 = ORIENTED_EDGE ( 'NONE', *, *, #102, .F. ) ;
#298 = DIRECTION ( 'NONE',  ( -0.0000000000000000000, -0.0000000000000000000, -1.000000000000000000 ) ) ;
#299 = ORIENTED_EDGE ( 'NONE', *, *, #119, .T. ) ;
#300 = LINE ( 'NONE', #222, #84 ) ;
#301 = EDGE_CURVE ( 'NONE', #132, #54, #300, .T. ) ;
#302 = SURFACE_STYLE_USAGE ( .BOTH. , #306 ) ;
#303 = AXIS2_PLACEMENT_3D ( 'NONE', #269, #78, #272 ) ;
#304 = CARTESIAN_POINT ( 'NONE',  ( 0.1443375672974065438, -0.2499999999999999167, 0.5000000000000000000 ) ) ;
#305 = DIRECTION ( 'NONE',  ( -1.182924880895401264E-16, 1.000000000000000000, 0.0000000000000000000 ) ) ;
#306 = SURFACE_SIDE_STYLE ('',( #113 ) ) ;
#307 = LINE ( 'NONE', #304, #66 ) ;
#308 = FACE_OUTER_BOUND ( 'NONE', #225, .T. ) ;
#309 = AXIS2_PLACEMENT_3D ( 'NONE', #16, #305, #202 ) ;
#310 = CARTESIAN_POINT ( 'NONE',  ( -0.1443375672974064050, 0.2500000000000000555, 0.5000000000000000000 ) ) ;
#311 = AXIS2_PLACEMENT_3D ( 'NONE', #56, #130, #45 ) ;
ENDSEC;
END-ISO-10303-21;
