ISO-10303-21;
HEADER;
FILE_DESCRIPTION (( 'STEP AP214' ),
    '1' );
FILE_NAME ('am-3948-250 500H x 250IN Spacer.STEP',
    '2018-09-24T21:07:53',
    ( '' ),
    ( '' ),
    'SwSTEP 2.0',
    'SolidWorks 2018',
    '' );
FILE_SCHEMA (( 'AUTOMOTIVE_DESIGN' ));
ENDSEC;

DATA;
#1 = CARTESIAN_POINT ( 'NONE',  ( 0.1443375672974065438, -0.2499999999999999167, 0.2500000000000000000 ) ) ;
#2 = CARTESIAN_POINT ( 'NONE',  ( -0.1443375672974064050, 0.2500000000000000555, 0.0000000000000000000 ) ) ;
#3 = FACE_OUTER_BOUND ( 'NONE', #222, .T. ) ;
#4 = VECTOR ( 'NONE', #119, 39.37007874015748143 ) ;
#5 = CARTESIAN_POINT ( 'NONE',  ( -0.2886751345948128655, 6.809993419335529712E-17, 0.0000000000000000000 ) ) ;
#6 = EDGE_CURVE ( 'NONE', #32, #31, #73, .T. ) ;
#7 = AXIS2_PLACEMENT_3D ( 'NONE', #1, #142, #231 ) ;
#8 = EDGE_CURVE ( 'NONE', #45, #48, #118, .T. ) ;
#9 = EDGE_LOOP ( 'NONE', ( #266 ) ) ;
#10 = LINE ( 'NONE', #192, #29 ) ;
#11 =( LENGTH_UNIT ( ) NAMED_UNIT ( * ) SI_UNIT ( $, .METRE. ) );
#12 = DIMENSIONAL_EXPONENTS ( 1.000000000000000000, 0.0000000000000000000, 0.0000000000000000000, 0.0000000000000000000, 0.0000000000000000000, 0.0000000000000000000, 0.0000000000000000000 ) ;
#13 = EDGE_CURVE ( 'NONE', #58, #48, #112, .T. ) ;
#14 = EDGE_CURVE ( 'NONE', #31, #205, #137, .T. ) ;
#15 = ADVANCED_FACE ( 'NONE', ( #133 ), #289, .T. ) ;
#16 = VECTOR ( 'NONE', #241, 39.37007874015749564 ) ;
#17 = EDGE_CURVE ( 'NONE', #135, #228, #260, .T. ) ;
#18 = DIRECTION ( 'NONE',  ( -0.5000000000000002220, 0.8660254037844384856, 0.0000000000000000000 ) ) ;
#19 = ORIENTED_EDGE ( 'NONE', *, *, #154, .T. ) ;
#20 = ORIENTED_EDGE ( 'NONE', *, *, #243, .T. ) ;
#21 = ORIENTED_EDGE ( 'NONE', *, *, #191, .F. ) ;
#22 = LINE ( 'NONE', #96, #109 ) ;
#23 = CARTESIAN_POINT ( 'NONE',  ( 0.1443375672974065438, -0.2499999999999999167, 0.0000000000000000000 ) ) ;
#24 =( CONVERSION_BASED_UNIT ( 'INCH', #310 ) LENGTH_UNIT ( ) NAMED_UNIT ( #281 ) );
#25 = AXIS2_PLACEMENT_3D ( 'NONE', #214, #130, #256 ) ;
#26 = CARTESIAN_POINT ( 'NONE',  ( 0.1443375672974063217, 0.2500000000000000555, 0.0000000000000000000 ) ) ;
#27 = ORIENTED_EDGE ( 'NONE', *, *, #6, .T. ) ;
#28 = ORIENTED_EDGE ( 'NONE', *, *, #13, .T. ) ;
#29 = VECTOR ( 'NONE', #175, 39.37007874015748143 ) ;
#30 = AXIS2_PLACEMENT_3D ( 'NONE', #92, #181, #139 ) ;
#31 = VERTEX_POINT ( 'NONE', #230 ) ;
#32 = VERTEX_POINT ( 'NONE', #94 ) ;
#33 = ORIENTED_EDGE ( 'NONE', *, *, #106, .F. ) ;
#34 = ORIENTED_EDGE ( 'NONE', *, *, #70, .F. ) ;
#35 = VECTOR ( 'NONE', #248, 39.37007874015748143 ) ;
#36 = EDGE_CURVE ( 'NONE', #52, #32, #42, .T. ) ;
#37 = LENGTH_MEASURE_WITH_UNIT ( LENGTH_MEASURE( 0.02539999999999999897 ), #11 );
#38 = ORIENTED_EDGE ( 'NONE', *, *, #6, .F. ) ;
#39 = PLANE ( 'NONE',  #177 ) ;
#40 = ORIENTED_EDGE ( 'NONE', *, *, #17, .F. ) ;
#41 = LINE ( 'NONE', #169, #303 ) ;
#42 = LINE ( 'NONE', #271, #100 ) ;
#43 = DIRECTION ( 'NONE',  ( 0.5000000000000002220, -0.8660254037844384856, 0.0000000000000000000 ) ) ;
#44 = AXIS2_PLACEMENT_3D ( 'NONE', #171, #157, #276 ) ;
#45 = VERTEX_POINT ( 'NONE', #2 ) ;
#46 = FACE_OUTER_BOUND ( 'NONE', #124, .T. ) ;
#47 = CARTESIAN_POINT ( 'NONE',  ( -0.2886751345948128655, 6.809993419335529712E-17, 0.2500000000000000000 ) ) ;
#48 = VERTEX_POINT ( 'NONE', #5 ) ;
#49 = VERTEX_POINT ( 'NONE', #167 ) ;
#50 = DIRECTION ( 'NONE',  ( -0.0000000000000000000, -0.0000000000000000000, -1.000000000000000000 ) ) ;
#51 = EDGE_CURVE ( 'NONE', #49, #52, #41, .T. ) ;
#52 = VERTEX_POINT ( 'NONE', #291 ) ;
#53 = DIRECTION ( 'NONE',  ( 1.000000000000000000, 1.182924880895401264E-16, 0.0000000000000000000 ) ) ;
#54 = EDGE_LOOP ( 'NONE', ( #40, #33, #275, #141 ) ) ;
#55 = FACE_OUTER_BOUND ( 'NONE', #285, .T. ) ;
#56 = SURFACE_SIDE_STYLE ('',( #249 ) ) ;
#57 = ORIENTED_EDGE ( 'NONE', *, *, #14, .F. ) ;
#58 = VERTEX_POINT ( 'NONE', #201 ) ;
#59 = DIRECTION ( 'NONE',  ( 0.0000000000000000000, 0.0000000000000000000, 1.000000000000000000 ) ) ;
#60 = EDGE_LOOP ( 'NONE', ( #160, #279, #150, #296, #172, #67 ) ) ;
#61 = CARTESIAN_POINT ( 'NONE',  ( 0.2886751345948129210, -3.392667169346791278E-17, 0.2500000000000000000 ) ) ;
#62 = LINE ( 'NONE', #82, #16 ) ;
#63 = SURFACE_STYLE_USAGE ( .BOTH. , #215 ) ;
#64 = ORIENTED_EDGE ( 'NONE', *, *, #182, .T. ) ;
#65 = ORIENTED_EDGE ( 'NONE', *, *, #184, .T. ) ;
#66 = DIRECTION ( 'NONE',  ( 0.4999999999999998890, 0.8660254037844385966, 0.0000000000000000000 ) ) ;
#67 = ORIENTED_EDGE ( 'NONE', *, *, #221, .F. ) ;
#68 = VERTEX_POINT ( 'NONE', #238 ) ;
#69 = ORIENTED_EDGE ( 'NONE', *, *, #8, .F. ) ;
#70 = EDGE_CURVE ( 'NONE', #125, #205, #22, .T. ) ;
#71 = ORIENTED_EDGE ( 'NONE', *, *, #293, .T. ) ;
#72 = CARTESIAN_POINT ( 'NONE',  ( 0.0000000000000000000, 0.0000000000000000000, 0.2500000000000000000 ) ) ;
#73 = LINE ( 'NONE', #292, #251 ) ;
#74 = CARTESIAN_POINT ( 'NONE',  ( 0.0000000000000000000, 0.0000000000000000000, 0.0000000000000000000 ) ) ;
#75 = DIRECTION ( 'NONE',  ( 1.000000000000000000, 1.182924880895401264E-16, 0.0000000000000000000 ) ) ;
#76 = EDGE_LOOP ( 'NONE', ( #71 ) ) ;
#77 = CARTESIAN_POINT ( 'NONE',  ( -0.1443375672974064050, 0.2500000000000000555, 0.2500000000000000000 ) ) ;
#78 = DIRECTION ( 'NONE',  ( -1.000000000000000000, -1.182924880895401264E-16, 0.0000000000000000000 ) ) ;
#79 = AXIS2_PLACEMENT_3D ( 'NONE', #280, #258, #105 ) ;
#80 = APPLICATION_CONTEXT ( 'automotive_design' ) ;
#81 = CARTESIAN_POINT ( 'NONE',  ( 0.3937007874015748254, 0.0000000000000000000, 0.2500000000000000000 ) ) ;
#82 = CARTESIAN_POINT ( 'NONE',  ( -0.2886751345948128655, 6.809993419335529712E-17, 0.0000000000000000000 ) ) ;
#83 = FILL_AREA_STYLE ('',( #242 ) ) ;
#84 = CARTESIAN_POINT ( 'NONE',  ( 0.1443375672974065438, -0.2499999999999999167, 0.0000000000000000000 ) ) ;
#85 = ORIENTED_EDGE ( 'NONE', *, *, #191, .T. ) ;
#86 = EDGE_LOOP ( 'NONE', ( #57, #38, #20, #299 ) ) ;
#87 = ORIENTED_EDGE ( 'NONE', *, *, #8, .T. ) ;
#88 = PRODUCT_RELATED_PRODUCT_CATEGORY ( 'part', '', ( #143 ) ) ;
#89 = LINE ( 'NONE', #104, #90 ) ;
#90 = VECTOR ( 'NONE', #131, 39.37007874015748143 ) ;
#91 = CARTESIAN_POINT ( 'NONE',  ( -0.1443375672974063217, -0.2499999999999999722, 0.2500000000000000000 ) ) ;
#92 = CARTESIAN_POINT ( 'NONE',  ( 0.1443375672974063217, 0.2500000000000000555, 0.2500000000000000000 ) ) ;
#93 = VERTEX_POINT ( 'NONE', #81 ) ;
#94 = CARTESIAN_POINT ( 'NONE',  ( 0.2886751345948129210, -3.392667169346791278E-17, 0.2500000000000000000 ) ) ;
#95 = MECHANICAL_DESIGN_GEOMETRIC_PRESENTATION_REPRESENTATION (  '', ( #216 ), #268 ) ;
#96 = CARTESIAN_POINT ( 'NONE',  ( 0.1443375672974063217, 0.2500000000000000555, 0.2500000000000000000 ) ) ;
#97 = VECTOR ( 'NONE', #75, 39.37007874015748143 ) ;
#98 = DIRECTION ( 'NONE',  ( -0.0000000000000000000, -0.0000000000000000000, -1.000000000000000000 ) ) ;
#99 = DIRECTION ( 'NONE',  ( 0.8660254037844385966, -0.5000000000000001110, 0.0000000000000000000 ) ) ;
#100 = VECTOR ( 'NONE', #290, 39.37007874015748854 ) ;
#101 = ORIENTED_EDGE ( 'NONE', *, *, #17, .T. ) ;
#102 = APPLICATION_PROTOCOL_DEFINITION ( 'draft international standard', 'automotive_design', 1998, #103 ) ;
#103 = APPLICATION_CONTEXT ( 'automotive_design' ) ;
#104 = CARTESIAN_POINT ( 'NONE',  ( 0.1443375672974065438, -0.2499999999999999167, 0.2500000000000000000 ) ) ;
#105 = DIRECTION ( 'NONE',  ( 1.000000000000000000, 0.0000000000000000000, -0.0000000000000000000 ) ) ;
#106 = EDGE_CURVE ( 'NONE', #49, #135, #264, .T. ) ;
#107 = PLANE ( 'NONE',  #79 ) ;
#108 = EDGE_CURVE ( 'NONE', #58, #49, #148, .T. ) ;
#109 = VECTOR ( 'NONE', #98, 39.37007874015748143 ) ;
#110 = AXIS2_PLACEMENT_3D ( 'NONE', #146, #99, #114 ) ;
#111 = LENGTH_MEASURE_WITH_UNIT ( LENGTH_MEASURE( 0.02539999999999999897 ), #298 );
#112 = LINE ( 'NONE', #226, #196 ) ;
#113 = FACE_BOUND ( 'NONE', #60, .T. ) ;
#114 = DIRECTION ( 'NONE',  ( 0.5000000000000001110, 0.8660254037844385966, 0.0000000000000000000 ) ) ;
#115 = SHAPE_DEFINITION_REPRESENTATION ( #239, #153 ) ;
#116 = CARTESIAN_POINT ( 'NONE',  ( -0.1443375672974064050, 0.2500000000000000555, 0.2500000000000000000 ) ) ;
#117 = DIRECTION ( 'NONE',  ( -1.000000000000000000, 0.0000000000000000000, 0.0000000000000000000 ) ) ;
#118 = LINE ( 'NONE', #164, #166 ) ;
#119 = DIRECTION ( 'NONE',  ( -1.000000000000000000, 0.0000000000000000000, 0.0000000000000000000 ) ) ;
#120 = UNCERTAINTY_MEASURE_WITH_UNIT (LENGTH_MEASURE( 1.000000000000000082E-05 ), #24, 'distance_accuracy_value', 'NONE');
#121 = ADVANCED_FACE ( 'NONE', ( #218, #55 ), #283, .T. ) ;
#122 = EDGE_CURVE ( 'NONE', #205, #45, #257, .T. ) ;
#123 = DIRECTION ( 'NONE',  ( 0.0000000000000000000, 0.0000000000000000000, 1.000000000000000000 ) ) ;
#124 = EDGE_LOOP ( 'NONE', ( #219, #246, #229, #224 ) ) ;
#125 = VERTEX_POINT ( 'NONE', #286 ) ;
#126 =( NAMED_UNIT ( * ) SI_UNIT ( $, .STERADIAN. ) SOLID_ANGLE_UNIT ( ) );
#127 = EDGE_LOOP ( 'NONE', ( #180, #34, #245, #85 ) ) ;
#128 = CARTESIAN_POINT ( 'NONE',  ( 0.0000000000000000000, 0.0000000000000000000, 0.0000000000000000000 ) ) ;
#129 = MECHANICAL_DESIGN_GEOMETRIC_PRESENTATION_REPRESENTATION (  '', ( #178 ), #204 ) ;
#130 = DIRECTION ( 'NONE',  ( 0.8660254037844385966, 0.5000000000000003331, -0.0000000000000000000 ) ) ;
#131 = DIRECTION ( 'NONE',  ( -0.0000000000000000000, -0.0000000000000000000, -1.000000000000000000 ) ) ;
#132 = DIRECTION ( 'NONE',  ( 1.000000000000000000, 0.0000000000000000000, -0.0000000000000000000 ) ) ;
#133 = FACE_OUTER_BOUND ( 'NONE', #197, .T. ) ;
#134 = LINE ( 'NONE', #61, #287 ) ;
#135 = VERTEX_POINT ( 'NONE', #163 ) ;
#136 = DIMENSIONAL_EXPONENTS ( 1.000000000000000000, 0.0000000000000000000, 0.0000000000000000000, 0.0000000000000000000, 0.0000000000000000000, 0.0000000000000000000, 0.0000000000000000000 ) ;
#137 = LINE ( 'NONE', #198, #202 ) ;
#138 =( GEOMETRIC_REPRESENTATION_CONTEXT ( 3 ) GLOBAL_UNCERTAINTY_ASSIGNED_CONTEXT ( ( #234 ) ) GLOBAL_UNIT_ASSIGNED_CONTEXT ( ( #155, #273, #126 ) ) REPRESENTATION_CONTEXT ( 'NONE', 'WORKASPACE' ) );
#139 = DIRECTION ( 'NONE',  ( 0.0000000000000000000, -0.0000000000000000000, -1.000000000000000000 ) ) ;
#140 = ORIENTED_EDGE ( 'NONE', *, *, #14, .T. ) ;
#141 = ORIENTED_EDGE ( 'NONE', *, *, #237, .T. ) ;
#142 = DIRECTION ( 'NONE',  ( -0.8660254037844387076, 0.4999999999999999445, 0.0000000000000000000 ) ) ;
#143 = PRODUCT ( 'am-3948-250 500H x 250IN Spacer', 'am-3948-250 500H x 250IN Spacer', '', ( #232 ) ) ;
#144 = DIRECTION ( 'NONE',  ( 1.000000000000000000, 0.0000000000000000000, 0.0000000000000000000 ) ) ;
#145 = EDGE_LOOP ( 'NONE', ( #200 ) ) ;
#146 = CARTESIAN_POINT ( 'NONE',  ( -0.1443375672974064050, 0.2500000000000000555, 0.2500000000000000000 ) ) ;
#147 = VERTEX_POINT ( 'NONE', #116 ) ;
#148 = LINE ( 'NONE', #47, #309 ) ;
#149 = ADVANCED_FACE ( 'NONE', ( #3 ), #179, .T. ) ;
#150 = ORIENTED_EDGE ( 'NONE', *, *, #51, .F. ) ;
#151 = CIRCLE ( 'NONE', #168, 0.3937007874015748254 ) ;
#152 =( NAMED_UNIT ( * ) SI_UNIT ( $, .STERADIAN. ) SOLID_ANGLE_UNIT ( ) );
#153 = ADVANCED_BREP_SHAPE_REPRESENTATION ( 'am-3948-250 500H x 250IN Spacer', ( #207, #161 ), #138 ) ;
#154 = EDGE_CURVE ( 'NONE', #68, #68, #151, .T. ) ;
#155 =( CONVERSION_BASED_UNIT ( 'INCH', #111 ) LENGTH_UNIT ( ) NAMED_UNIT ( #136 ) );
#156 = ADVANCED_FACE ( 'NONE', ( #254 ), #212, .T. ) ;
#157 = DIRECTION ( 'NONE',  ( -0.8660254037844385966, -0.5000000000000003331, 0.0000000000000000000 ) ) ;
#158 = ADVANCED_FACE ( 'NONE', ( #194 ), #39, .T. ) ;
#159 = CLOSED_SHELL ( 'NONE', ( #193, #210, #121, #15, #277, #156, #149, #235, #158 ) ) ;
#160 = ORIENTED_EDGE ( 'NONE', *, *, #243, .F. ) ;
#161 = AXIS2_PLACEMENT_3D ( 'NONE', #128, #123, #253 ) ;
#162 = EDGE_LOOP ( 'NONE', ( #65, #140, #259, #87, #217, #101 ) ) ;
#163 = CARTESIAN_POINT ( 'NONE',  ( -0.1443375672974063217, -0.2499999999999999722, 0.0000000000000000000 ) ) ;
#164 = CARTESIAN_POINT ( 'NONE',  ( -0.1443375672974064050, 0.2500000000000000555, 0.0000000000000000000 ) ) ;
#165 = CARTESIAN_POINT ( 'NONE',  ( -0.1443375672974063217, -0.2499999999999999722, 0.2500000000000000000 ) ) ;
#166 = VECTOR ( 'NONE', #225, 39.37007874015748854 ) ;
#167 = CARTESIAN_POINT ( 'NONE',  ( -0.1443375672974063217, -0.2499999999999999722, 0.2500000000000000000 ) ) ;
#168 = AXIS2_PLACEMENT_3D ( 'NONE', #74, #308, #144 ) ;
#169 = CARTESIAN_POINT ( 'NONE',  ( -0.1443375672974063217, -0.2499999999999999722, 0.2500000000000000000 ) ) ;
#170 =( CONVERSION_BASED_UNIT ( 'INCH', #37 ) LENGTH_UNIT ( ) NAMED_UNIT ( #12 ) );
#171 = CARTESIAN_POINT ( 'NONE',  ( 0.2886751345948129210, -3.392667169346791278E-17, 0.2500000000000000000 ) ) ;
#172 = ORIENTED_EDGE ( 'NONE', *, *, #182, .F. ) ;
#173 = DIRECTION ( 'NONE',  ( -1.000000000000000000, 0.0000000000000000000, 0.0000000000000000000 ) ) ;
#174 =( NAMED_UNIT ( * ) PLANE_ANGLE_UNIT ( ) SI_UNIT ( $, .RADIAN. ) );
#175 = DIRECTION ( 'NONE',  ( -0.0000000000000000000, -0.0000000000000000000, -1.000000000000000000 ) ) ;
#176 = PRESENTATION_LAYER_ASSIGNMENT (  '', '', ( #178 ) ) ;
#177 = AXIS2_PLACEMENT_3D ( 'NONE', #165, #252, #78 ) ;
#178 = STYLED_ITEM ( 'NONE', ( #265 ), #153 ) ;
#179 = PLANE ( 'NONE',  #110 ) ;
#180 = ORIENTED_EDGE ( 'NONE', *, *, #122, .F. ) ;
#181 = DIRECTION ( 'NONE',  ( 0.0000000000000000000, -1.000000000000000000, 0.0000000000000000000 ) ) ;
#182 = EDGE_CURVE ( 'NONE', #147, #58, #284, .T. ) ;
#183 = AXIS2_PLACEMENT_3D ( 'NONE', #244, #282, #132 ) ;
#184 = EDGE_CURVE ( 'NONE', #228, #31, #195, .T. ) ;
#185 = SURFACE_STYLE_USAGE ( .BOTH. , #56 ) ;
#186 = DIRECTION ( 'NONE',  ( 1.000000000000000000, 0.0000000000000000000, 0.0000000000000000000 ) ) ;
#187 = PLANE ( 'NONE',  #44 ) ;
#188 = VECTOR ( 'NONE', #173, 39.37007874015748143 ) ;
#189 = CARTESIAN_POINT ( 'NONE',  ( 0.1443375672974063217, 0.2500000000000000555, 0.2500000000000000000 ) ) ;
#190 =( LENGTH_UNIT ( ) NAMED_UNIT ( * ) SI_UNIT ( $, .METRE. ) );
#191 = EDGE_CURVE ( 'NONE', #147, #45, #10, .T. ) ;
#192 = CARTESIAN_POINT ( 'NONE',  ( -0.1443375672974064050, 0.2500000000000000555, 0.2500000000000000000 ) ) ;
#193 = ADVANCED_FACE ( 'NONE', ( #262, #113 ), #304, .T. ) ;
#194 = FACE_OUTER_BOUND ( 'NONE', #54, .T. ) ;
#195 = LINE ( 'NONE', #84, #305 ) ;
#196 = VECTOR ( 'NONE', #311, 39.37007874015748143 ) ;
#197 = EDGE_LOOP ( 'NONE', ( #297, #236, #278, #27 ) ) ;
#198 = CARTESIAN_POINT ( 'NONE',  ( 0.2886751345948129210, -3.392667169346791278E-17, 0.0000000000000000000 ) ) ;
#199 = CARTESIAN_POINT ( 'NONE',  ( -0.1443375672974063217, -0.2499999999999999722, 0.0000000000000000000 ) ) ;
#200 = ORIENTED_EDGE ( 'NONE', *, *, #154, .F. ) ;
#201 = CARTESIAN_POINT ( 'NONE',  ( -0.2886751345948128655, 6.809993419335529712E-17, 0.2500000000000000000 ) ) ;
#202 = VECTOR ( 'NONE', #203, 39.37007874015749564 ) ;
#203 = DIRECTION ( 'NONE',  ( -0.5000000000000002220, 0.8660254037844384856, 0.0000000000000000000 ) ) ;
#204 =( GEOMETRIC_REPRESENTATION_CONTEXT ( 3 ) GLOBAL_UNCERTAINTY_ASSIGNED_CONTEXT ( ( #274 ) ) GLOBAL_UNIT_ASSIGNED_CONTEXT ( ( #170, #295, #152 ) ) REPRESENTATION_CONTEXT ( 'NONE', 'WORKASPACE' ) );
#205 = VERTEX_POINT ( 'NONE', #26 ) ;
#206 = APPLICATION_PROTOCOL_DEFINITION ( 'draft international standard', 'automotive_design', 1998, #80 ) ;
#207 = MANIFOLD_SOLID_BREP ( 'Boss-Extrude1', #159 ) ;
#208 = FILL_AREA_STYLE ('',( #240 ) ) ;
#209 = CARTESIAN_POINT ( 'NONE',  ( 0.0000000000000000000, 0.0000000000000000000, 0.2500000000000000000 ) ) ;
#210 = ADVANCED_FACE ( 'NONE', ( #300, #247 ), #107, .F. ) ;
#211 = CIRCLE ( 'NONE', #255, 0.3937007874015748254 ) ;
#212 = PLANE ( 'NONE',  #30 ) ;
#213 = PRESENTATION_STYLE_ASSIGNMENT (( #63 ) ) ;
#214 = CARTESIAN_POINT ( 'NONE',  ( -0.2886751345948128655, 6.809993419335529712E-17, 0.2500000000000000000 ) ) ;
#215 = SURFACE_SIDE_STYLE ('',( #272 ) ) ;
#216 = STYLED_ITEM ( 'NONE', ( #213 ), #207 ) ;
#217 = ORIENTED_EDGE ( 'NONE', *, *, #220, .T. ) ;
#218 = FACE_OUTER_BOUND ( 'NONE', #9, .T. ) ;
#219 = ORIENTED_EDGE ( 'NONE', *, *, #220, .F. ) ;
#220 = EDGE_CURVE ( 'NONE', #48, #135, #62, .T. ) ;
#221 = EDGE_CURVE ( 'NONE', #125, #147, #227, .T. ) ;
#222 = EDGE_LOOP ( 'NONE', ( #69, #21, #64, #28 ) ) ;
#223 = CARTESIAN_POINT ( 'NONE',  ( 0.1443375672974063217, 0.2500000000000000555, 0.0000000000000000000 ) ) ;
#224 = ORIENTED_EDGE ( 'NONE', *, *, #106, .T. ) ;
#225 = DIRECTION ( 'NONE',  ( -0.5000000000000000000, -0.8660254037844385966, 0.0000000000000000000 ) ) ;
#226 = CARTESIAN_POINT ( 'NONE',  ( -0.2886751345948128655, 6.809993419335529712E-17, 0.2500000000000000000 ) ) ;
#227 = LINE ( 'NONE', #189, #188 ) ;
#228 = VERTEX_POINT ( 'NONE', #23 ) ;
#229 = ORIENTED_EDGE ( 'NONE', *, *, #108, .T. ) ;
#230 = CARTESIAN_POINT ( 'NONE',  ( 0.2886751345948129210, -3.392667169346791278E-17, 0.0000000000000000000 ) ) ;
#231 = DIRECTION ( 'NONE',  ( -0.4999999999999998890, -0.8660254037844385966, 0.0000000000000000000 ) ) ;
#232 = PRODUCT_CONTEXT ( 'NONE', #103, 'mechanical' ) ;
#233 = PRODUCT_DEFINITION_FORMATION_WITH_SPECIFIED_SOURCE ( 'ANY', '', #143, .NOT_KNOWN. ) ;
#234 = UNCERTAINTY_MEASURE_WITH_UNIT (LENGTH_MEASURE( 1.000000000000000082E-05 ), #155, 'distance_accuracy_value', 'NONE');
#235 = ADVANCED_FACE ( 'NONE', ( #46 ), #301, .T. ) ;
#236 = ORIENTED_EDGE ( 'NONE', *, *, #237, .F. ) ;
#237 = EDGE_CURVE ( 'NONE', #52, #228, #89, .T. ) ;
#238 = CARTESIAN_POINT ( 'NONE',  ( 0.3937007874015748254, 0.0000000000000000000, 0.0000000000000000000 ) ) ;
#239 = PRODUCT_DEFINITION_SHAPE ( 'NONE', 'NONE',  #270 ) ;
#240 = FILL_AREA_STYLE_COLOUR ( '', #288 ) ;
#241 = DIRECTION ( 'NONE',  ( 0.5000000000000002220, -0.8660254037844384856, 0.0000000000000000000 ) ) ;
#242 = FILL_AREA_STYLE_COLOUR ( '', #269 ) ;
#243 = EDGE_CURVE ( 'NONE', #32, #125, #134, .T. ) ;
#244 = CARTESIAN_POINT ( 'NONE',  ( 0.0000000000000000000, 0.0000000000000000000, 0.2500000000000000000 ) ) ;
#245 = ORIENTED_EDGE ( 'NONE', *, *, #221, .T. ) ;
#246 = ORIENTED_EDGE ( 'NONE', *, *, #13, .F. ) ;
#247 = FACE_BOUND ( 'NONE', #162, .T. ) ;
#248 = DIRECTION ( 'NONE',  ( -0.0000000000000000000, -0.0000000000000000000, -1.000000000000000000 ) ) ;
#249 = SURFACE_STYLE_FILL_AREA ( #208 ) ;
#250 = PRESENTATION_LAYER_ASSIGNMENT (  '', '', ( #216 ) ) ;
#251 = VECTOR ( 'NONE', #306, 39.37007874015748143 ) ;
#252 = DIRECTION ( 'NONE',  ( -1.182924880895401264E-16, 1.000000000000000000, 0.0000000000000000000 ) ) ;
#253 = DIRECTION ( 'NONE',  ( 1.000000000000000000, 0.0000000000000000000, 0.0000000000000000000 ) ) ;
#254 = FACE_OUTER_BOUND ( 'NONE', #127, .T. ) ;
#255 = AXIS2_PLACEMENT_3D ( 'NONE', #209, #59, #186 ) ;
#256 = DIRECTION ( 'NONE',  ( -0.5000000000000002220, 0.8660254037844384856, 0.0000000000000000000 ) ) ;
#257 = LINE ( 'NONE', #223, #4 ) ;
#258 = DIRECTION ( 'NONE',  ( 0.0000000000000000000, 0.0000000000000000000, 1.000000000000000000 ) ) ;
#259 = ORIENTED_EDGE ( 'NONE', *, *, #122, .T. ) ;
#260 = LINE ( 'NONE', #199, #97 ) ;
#261 = DIRECTION ( 'NONE',  ( -0.5000000000000000000, -0.8660254037844385966, 0.0000000000000000000 ) ) ;
#262 = FACE_OUTER_BOUND ( 'NONE', #76, .T. ) ;
#263 = PRODUCT_DEFINITION_CONTEXT ( 'detailed design', #80, 'design' ) ;
#264 = LINE ( 'NONE', #91, #35 ) ;
#265 = PRESENTATION_STYLE_ASSIGNMENT (( #185 ) ) ;
#266 = ORIENTED_EDGE ( 'NONE', *, *, #293, .F. ) ;
#267 = VECTOR ( 'NONE', #261, 39.37007874015748854 ) ;
#268 =( GEOMETRIC_REPRESENTATION_CONTEXT ( 3 ) GLOBAL_UNCERTAINTY_ASSIGNED_CONTEXT ( ( #120 ) ) GLOBAL_UNIT_ASSIGNED_CONTEXT ( ( #24, #174, #302 ) ) REPRESENTATION_CONTEXT ( 'NONE', 'WORKASPACE' ) );
#269 = COLOUR_RGB ( '',1.000000000000000000, 1.000000000000000000, 1.000000000000000000 ) ;
#270 = PRODUCT_DEFINITION ( 'UNKNOWN', '', #233, #263 ) ;
#271 = CARTESIAN_POINT ( 'NONE',  ( 0.1443375672974065438, -0.2499999999999999167, 0.2500000000000000000 ) ) ;
#272 = SURFACE_STYLE_FILL_AREA ( #83 ) ;
#273 =( NAMED_UNIT ( * ) PLANE_ANGLE_UNIT ( ) SI_UNIT ( $, .RADIAN. ) );
#274 = UNCERTAINTY_MEASURE_WITH_UNIT (LENGTH_MEASURE( 1.000000000000000082E-05 ), #170, 'distance_accuracy_value', 'NONE');
#275 = ORIENTED_EDGE ( 'NONE', *, *, #51, .T. ) ;
#276 = DIRECTION ( 'NONE',  ( 0.5000000000000002220, -0.8660254037844384856, 0.0000000000000000000 ) ) ;
#277 = ADVANCED_FACE ( 'NONE', ( #294 ), #187, .T. ) ;
#278 = ORIENTED_EDGE ( 'NONE', *, *, #36, .T. ) ;
#279 = ORIENTED_EDGE ( 'NONE', *, *, #36, .F. ) ;
#280 = CARTESIAN_POINT ( 'NONE',  ( 0.0000000000000000000, 0.0000000000000000000, 0.0000000000000000000 ) ) ;
#281 = DIMENSIONAL_EXPONENTS ( 1.000000000000000000, 0.0000000000000000000, 0.0000000000000000000, 0.0000000000000000000, 0.0000000000000000000, 0.0000000000000000000, 0.0000000000000000000 ) ;
#282 = DIRECTION ( 'NONE',  ( 0.0000000000000000000, 0.0000000000000000000, 1.000000000000000000 ) ) ;
#283 = CYLINDRICAL_SURFACE ( 'NONE', #307, 0.3937007874015748254 ) ;
#284 = LINE ( 'NONE', #77, #267 ) ;
#285 = EDGE_LOOP ( 'NONE', ( #19 ) ) ;
#286 = CARTESIAN_POINT ( 'NONE',  ( 0.1443375672974063217, 0.2500000000000000555, 0.2500000000000000000 ) ) ;
#287 = VECTOR ( 'NONE', #18, 39.37007874015749564 ) ;
#288 = COLOUR_RGB ( '',1.000000000000000000, 1.000000000000000000, 1.000000000000000000 ) ;
#289 = PLANE ( 'NONE',  #7 ) ;
#290 = DIRECTION ( 'NONE',  ( 0.4999999999999998890, 0.8660254037844385966, 0.0000000000000000000 ) ) ;
#291 = CARTESIAN_POINT ( 'NONE',  ( 0.1443375672974065438, -0.2499999999999999167, 0.2500000000000000000 ) ) ;
#292 = CARTESIAN_POINT ( 'NONE',  ( 0.2886751345948129210, -3.392667169346791278E-17, 0.2500000000000000000 ) ) ;
#293 = EDGE_CURVE ( 'NONE', #93, #93, #211, .T. ) ;
#294 = FACE_OUTER_BOUND ( 'NONE', #86, .T. ) ;
#295 =( NAMED_UNIT ( * ) PLANE_ANGLE_UNIT ( ) SI_UNIT ( $, .RADIAN. ) );
#296 = ORIENTED_EDGE ( 'NONE', *, *, #108, .F. ) ;
#297 = ORIENTED_EDGE ( 'NONE', *, *, #184, .F. ) ;
#298 =( LENGTH_UNIT ( ) NAMED_UNIT ( * ) SI_UNIT ( $, .METRE. ) );
#299 = ORIENTED_EDGE ( 'NONE', *, *, #70, .T. ) ;
#300 = FACE_OUTER_BOUND ( 'NONE', #145, .T. ) ;
#301 = PLANE ( 'NONE',  #25 ) ;
#302 =( NAMED_UNIT ( * ) SI_UNIT ( $, .STERADIAN. ) SOLID_ANGLE_UNIT ( ) );
#303 = VECTOR ( 'NONE', #53, 39.37007874015748143 ) ;
#304 = PLANE ( 'NONE',  #183 ) ;
#305 = VECTOR ( 'NONE', #66, 39.37007874015748854 ) ;
#306 = DIRECTION ( 'NONE',  ( -0.0000000000000000000, -0.0000000000000000000, -1.000000000000000000 ) ) ;
#307 = AXIS2_PLACEMENT_3D ( 'NONE', #72, #50, #117 ) ;
#308 = DIRECTION ( 'NONE',  ( 0.0000000000000000000, 0.0000000000000000000, 1.000000000000000000 ) ) ;
#309 = VECTOR ( 'NONE', #43, 39.37007874015749564 ) ;
#310 = LENGTH_MEASURE_WITH_UNIT ( LENGTH_MEASURE( 0.02539999999999999897 ), #190 );
#311 = DIRECTION ( 'NONE',  ( -0.0000000000000000000, -0.0000000000000000000, -1.000000000000000000 ) ) ;
ENDSEC;
END-ISO-10303-21;
