ISO-10303-21;
HEADER;
FILE_DESCRIPTION (( 'STEP AP214' ),
    '1' );
FILE_NAME ('am-3948-125 500H x 125IN Spacer.STEP',
    '2018-09-24T21:07:04',
    ( '' ),
    ( '' ),
    'SwSTEP 2.0',
    'SolidWorks 2018',
    '' );
FILE_SCHEMA (( 'AUTOMOTIVE_DESIGN' ));
ENDSEC;

DATA;
#1 = ORIENTED_EDGE ( 'NONE', *, *, #270, .F. ) ;
#2 = EDGE_LOOP ( 'NONE', ( #147, #134, #110, #15, #14, #289 ) ) ;
#3 = EDGE_CURVE ( 'NONE', #41, #60, #308, .T. ) ;
#4 = COLOUR_RGB ( '',1.000000000000000000, 1.000000000000000000, 1.000000000000000000 ) ;
#5 = ORIENTED_EDGE ( 'NONE', *, *, #262, .F. ) ;
#6 = DIRECTION ( 'NONE',  ( 0.0000000000000000000, -1.000000000000000000, 0.0000000000000000000 ) ) ;
#7 = LINE ( 'NONE', #21, #186 ) ;
#8 = PRODUCT_DEFINITION ( 'UNKNOWN', '', #288, #167 ) ;
#9 = ORIENTED_EDGE ( 'NONE', *, *, #29, .T. ) ;
#10 = ORIENTED_EDGE ( 'NONE', *, *, #61, .T. ) ;
#11 =( NAMED_UNIT ( * ) SI_UNIT ( $, .STERADIAN. ) SOLID_ANGLE_UNIT ( ) );
#12 = DIRECTION ( 'NONE',  ( 0.4999999999999998890, 0.8660254037844385966, 0.0000000000000000000 ) ) ;
#13 = DIRECTION ( 'NONE',  ( 0.0000000000000000000, 0.0000000000000000000, 1.000000000000000000 ) ) ;
#14 = ORIENTED_EDGE ( 'NONE', *, *, #29, .F. ) ;
#15 = ORIENTED_EDGE ( 'NONE', *, *, #83, .F. ) ;
#16 = CLOSED_SHELL ( 'NONE', ( #149, #17, #45, #117, #213, #59, #22, #201, #101 ) ) ;
#17 = ADVANCED_FACE ( 'NONE', ( #180, #118 ), #30, .F. ) ;
#18 = DIRECTION ( 'NONE',  ( -1.000000000000000000, 0.0000000000000000000, 0.0000000000000000000 ) ) ;
#19 = LINE ( 'NONE', #296, #58 ) ;
#20 = CARTESIAN_POINT ( 'NONE',  ( -0.1443375672974063217, -0.2499999999999999722, 0.1250000000000000000 ) ) ;
#21 = CARTESIAN_POINT ( 'NONE',  ( -0.2886751345948128655, 6.809993419335529712E-17, 0.1250000000000000000 ) ) ;
#22 = ADVANCED_FACE ( 'NONE', ( #211 ), #223, .T. ) ;
#23 = DIRECTION ( 'NONE',  ( 0.0000000000000000000, 0.0000000000000000000, 1.000000000000000000 ) ) ;
#24 = CYLINDRICAL_SURFACE ( 'NONE', #27, 0.3937007874015748254 ) ;
#25 = EDGE_LOOP ( 'NONE', ( #160 ) ) ;
#26 = ORIENTED_EDGE ( 'NONE', *, *, #233, .T. ) ;
#27 = AXIS2_PLACEMENT_3D ( 'NONE', #199, #196, #67 ) ;
#28 = DIRECTION ( 'NONE',  ( -0.5000000000000000000, -0.8660254037844385966, 0.0000000000000000000 ) ) ;
#29 = EDGE_CURVE ( 'NONE', #207, #283, #182, .T. ) ;
#30 = PLANE ( 'NONE',  #205 ) ;
#31 = FACE_OUTER_BOUND ( 'NONE', #303, .T. ) ;
#32 = DIRECTION ( 'NONE',  ( 0.0000000000000000000, -0.0000000000000000000, -1.000000000000000000 ) ) ;
#33 = VECTOR ( 'NONE', #152, 39.37007874015748143 ) ;
#34 = LINE ( 'NONE', #55, #80 ) ;
#35 =( LENGTH_UNIT ( ) NAMED_UNIT ( * ) SI_UNIT ( $, .METRE. ) );
#36 = VECTOR ( 'NONE', #209, 39.37007874015748143 ) ;
#37 = EDGE_LOOP ( 'NONE', ( #5, #287, #189, #145 ) ) ;
#38 =( NAMED_UNIT ( * ) SI_UNIT ( $, .STERADIAN. ) SOLID_ANGLE_UNIT ( ) );
#39 =( CONVERSION_BASED_UNIT ( 'INCH', #100 ) LENGTH_UNIT ( ) NAMED_UNIT ( #279 ) );
#40 = DIRECTION ( 'NONE',  ( -0.0000000000000000000, -0.0000000000000000000, -1.000000000000000000 ) ) ;
#41 = VERTEX_POINT ( 'NONE', #204 ) ;
#42 = CARTESIAN_POINT ( 'NONE',  ( 0.1443375672974063217, 0.2500000000000000555, 0.0000000000000000000 ) ) ;
#43 = VERTEX_POINT ( 'NONE', #122 ) ;
#44 = AXIS2_PLACEMENT_3D ( 'NONE', #131, #74, #119 ) ;
#45 = ADVANCED_FACE ( 'NONE', ( #238, #79 ), #24, .T. ) ;
#46 = DIRECTION ( 'NONE',  ( -0.0000000000000000000, -0.0000000000000000000, -1.000000000000000000 ) ) ;
#47 = CARTESIAN_POINT ( 'NONE',  ( -0.1443375672974063217, -0.2499999999999999722, 0.1250000000000000000 ) ) ;
#48 = CARTESIAN_POINT ( 'NONE',  ( 0.1443375672974063217, 0.2500000000000000555, 0.1250000000000000000 ) ) ;
#49 = CARTESIAN_POINT ( 'NONE',  ( 0.1443375672974063217, 0.2500000000000000555, 0.0000000000000000000 ) ) ;
#50 = ADVANCED_BREP_SHAPE_REPRESENTATION ( 'am-3948-125 500H x 125IN Spacer', ( #139, #136 ), #264 ) ;
#51 = CARTESIAN_POINT ( 'NONE',  ( -0.2886751345948128655, 6.809993419335529712E-17, 0.0000000000000000000 ) ) ;
#52 = EDGE_LOOP ( 'NONE', ( #95 ) ) ;
#53 = DIRECTION ( 'NONE',  ( 0.5000000000000001110, 0.8660254037844385966, 0.0000000000000000000 ) ) ;
#54 = EDGE_CURVE ( 'NONE', #192, #81, #34, .T. ) ;
#55 = CARTESIAN_POINT ( 'NONE',  ( -0.1443375672974064050, 0.2500000000000000555, 0.0000000000000000000 ) ) ;
#56 = VECTOR ( 'NONE', #146, 39.37007874015749564 ) ;
#57 = LINE ( 'NONE', #168, #56 ) ;
#58 = VECTOR ( 'NONE', #12, 39.37007874015748854 ) ;
#59 = ADVANCED_FACE ( 'NONE', ( #82 ), #261, .T. ) ;
#60 = VERTEX_POINT ( 'NONE', #98 ) ;
#61 = EDGE_CURVE ( 'NONE', #207, #192, #107, .T. ) ;
#62 =( CONVERSION_BASED_UNIT ( 'INCH', #77 ) LENGTH_UNIT ( ) NAMED_UNIT ( #306 ) );
#63 = ORIENTED_EDGE ( 'NONE', *, *, #54, .F. ) ;
#64 = VECTOR ( 'NONE', #268, 39.37007874015748143 ) ;
#65 = FACE_OUTER_BOUND ( 'NONE', #174, .T. ) ;
#66 = CARTESIAN_POINT ( 'NONE',  ( 0.0000000000000000000, 0.0000000000000000000, 0.0000000000000000000 ) ) ;
#67 = DIRECTION ( 'NONE',  ( -1.000000000000000000, 0.0000000000000000000, 0.0000000000000000000 ) ) ;
#68 = PRODUCT_RELATED_PRODUCT_CATEGORY ( 'part', '', ( #234 ) ) ;
#69 = ORIENTED_EDGE ( 'NONE', *, *, #3, .T. ) ;
#70 = DIRECTION ( 'NONE',  ( 1.000000000000000000, 0.0000000000000000000, 0.0000000000000000000 ) ) ;
#71 = ORIENTED_EDGE ( 'NONE', *, *, #177, .T. ) ;
#72 =( NAMED_UNIT ( * ) SI_UNIT ( $, .STERADIAN. ) SOLID_ANGLE_UNIT ( ) );
#73 = CIRCLE ( 'NONE', #87, 0.3937007874015748254 ) ;
#74 = DIRECTION ( 'NONE',  ( -0.8660254037844387076, 0.4999999999999999445, 0.0000000000000000000 ) ) ;
#75 = MECHANICAL_DESIGN_GEOMETRIC_PRESENTATION_REPRESENTATION (  '', ( #84 ), #161 ) ;
#76 = PRODUCT_DEFINITION_SHAPE ( 'NONE', 'NONE',  #8 ) ;
#77 = LENGTH_MEASURE_WITH_UNIT ( LENGTH_MEASURE( 0.02539999999999999897 ), #216 );
#78 = VERTEX_POINT ( 'NONE', #245 ) ;
#79 = FACE_OUTER_BOUND ( 'NONE', #52, .T. ) ;
#80 = VECTOR ( 'NONE', #28, 39.37007874015748854 ) ;
#81 = VERTEX_POINT ( 'NONE', #51 ) ;
#82 = FACE_OUTER_BOUND ( 'NONE', #195, .T. ) ;
#83 = EDGE_CURVE ( 'NONE', #283, #41, #7, .T. ) ;
#84 = STYLED_ITEM ( 'NONE', ( #155 ), #139 ) ;
#85 = SURFACE_STYLE_USAGE ( .BOTH. , #243 ) ;
#86 = FILL_AREA_STYLE_COLOUR ( '', #187 ) ;
#87 = AXIS2_PLACEMENT_3D ( 'NONE', #90, #222, #70 ) ;
#88 = CARTESIAN_POINT ( 'NONE',  ( 0.1443375672974065438, -0.2499999999999999167, 0.1250000000000000000 ) ) ;
#89 = PLANE ( 'NONE',  #255 ) ;
#90 = CARTESIAN_POINT ( 'NONE',  ( 0.0000000000000000000, 0.0000000000000000000, 0.0000000000000000000 ) ) ;
#91 = CARTESIAN_POINT ( 'NONE',  ( -0.2886751345948128655, 6.809993419335529712E-17, 0.0000000000000000000 ) ) ;
#92 = LINE ( 'NONE', #295, #64 ) ;
#93 = SURFACE_STYLE_FILL_AREA ( #103 ) ;
#94 = ORIENTED_EDGE ( 'NONE', *, *, #54, .T. ) ;
#95 = ORIENTED_EDGE ( 'NONE', *, *, #183, .T. ) ;
#96 = FACE_OUTER_BOUND ( 'NONE', #37, .T. ) ;
#97 = FILL_AREA_STYLE ('',( #230 ) ) ;
#98 = CARTESIAN_POINT ( 'NONE',  ( 0.1443375672974065438, -0.2499999999999999167, 0.1250000000000000000 ) ) ;
#99 = EDGE_LOOP ( 'NONE', ( #240, #278, #69, #71 ) ) ;
#100 = LENGTH_MEASURE_WITH_UNIT ( LENGTH_MEASURE( 0.02539999999999999897 ), #193 );
#101 = ADVANCED_FACE ( 'NONE', ( #121 ), #154, .T. ) ;
#102 = APPLICATION_CONTEXT ( 'automotive_design' ) ;
#103 = FILL_AREA_STYLE ('',( #86 ) ) ;
#104 = PRESENTATION_STYLE_ASSIGNMENT (( #85 ) ) ;
#105 = CARTESIAN_POINT ( 'NONE',  ( -0.1443375672974063217, -0.2499999999999999722, 0.0000000000000000000 ) ) ;
#106 = ORIENTED_EDGE ( 'NONE', *, *, #141, .F. ) ;
#107 = LINE ( 'NONE', #297, #157 ) ;
#108 = CARTESIAN_POINT ( 'NONE',  ( -0.1443375672974063217, -0.2499999999999999722, 0.0000000000000000000 ) ) ;
#109 = DIRECTION ( 'NONE',  ( -0.5000000000000002220, 0.8660254037844384856, 0.0000000000000000000 ) ) ;
#110 = ORIENTED_EDGE ( 'NONE', *, *, #3, .F. ) ;
#111 = LINE ( 'NONE', #272, #307 ) ;
#112 = DIRECTION ( 'NONE',  ( 0.0000000000000000000, 0.0000000000000000000, 1.000000000000000000 ) ) ;
#113 = AXIS2_PLACEMENT_3D ( 'NONE', #130, #112, #253 ) ;
#114 = ORIENTED_EDGE ( 'NONE', *, *, #61, .F. ) ;
#115 = AXIS2_PLACEMENT_3D ( 'NONE', #172, #13, #150 ) ;
#116 = AXIS2_PLACEMENT_3D ( 'NONE', #299, #273, #109 ) ;
#117 = ADVANCED_FACE ( 'NONE', ( #96 ), #284, .T. ) ;
#118 = FACE_BOUND ( 'NONE', #210, .T. ) ;
#119 = DIRECTION ( 'NONE',  ( -0.4999999999999998890, -0.8660254037844385966, 0.0000000000000000000 ) ) ;
#120 = ORIENTED_EDGE ( 'NONE', *, *, #212, .T. ) ;
#121 = FACE_OUTER_BOUND ( 'NONE', #99, .T. ) ;
#122 = CARTESIAN_POINT ( 'NONE',  ( 0.1443375672974063217, 0.2500000000000000555, 0.1250000000000000000 ) ) ;
#123 = ORIENTED_EDGE ( 'NONE', *, *, #183, .F. ) ;
#124 = APPLICATION_PROTOCOL_DEFINITION ( 'draft international standard', 'automotive_design', 1998, #294 ) ;
#125 = ORIENTED_EDGE ( 'NONE', *, *, #141, .T. ) ;
#126 = CARTESIAN_POINT ( 'NONE',  ( -0.2886751345948128655, 6.809993419335529712E-17, 0.1250000000000000000 ) ) ;
#127 = CARTESIAN_POINT ( 'NONE',  ( 0.2886751345948129210, -3.392667169346791278E-17, 0.1250000000000000000 ) ) ;
#128 = DIRECTION ( 'NONE',  ( 0.5000000000000002220, -0.8660254037844384856, 0.0000000000000000000 ) ) ;
#129 = PLANE ( 'NONE',  #116 ) ;
#130 = CARTESIAN_POINT ( 'NONE',  ( 0.0000000000000000000, 0.0000000000000000000, 0.1250000000000000000 ) ) ;
#131 = CARTESIAN_POINT ( 'NONE',  ( 0.1443375672974065438, -0.2499999999999999167, 0.1250000000000000000 ) ) ;
#132 = DIRECTION ( 'NONE',  ( 0.8660254037844385966, -0.5000000000000001110, 0.0000000000000000000 ) ) ;
#133 = UNCERTAINTY_MEASURE_WITH_UNIT (LENGTH_MEASURE( 1.000000000000000082E-05 ), #62, 'distance_accuracy_value', 'NONE');
#134 = ORIENTED_EDGE ( 'NONE', *, *, #221, .F. ) ;
#135 = SHAPE_DEFINITION_REPRESENTATION ( #76, #50 ) ;
#136 = AXIS2_PLACEMENT_3D ( 'NONE', #66, #143, #293 ) ;
#137 =( NAMED_UNIT ( * ) PLANE_ANGLE_UNIT ( ) SI_UNIT ( $, .RADIAN. ) );
#138 = LINE ( 'NONE', #91, #310 ) ;
#139 = MANIFOLD_SOLID_BREP ( 'Boss-Extrude1', #16 ) ;
#140 = EDGE_CURVE ( 'NONE', #259, #43, #148, .T. ) ;
#141 = EDGE_CURVE ( 'NONE', #231, #192, #203, .T. ) ;
#142 = ORIENTED_EDGE ( 'NONE', *, *, #271, .T. ) ;
#143 = DIRECTION ( 'NONE',  ( 0.0000000000000000000, 0.0000000000000000000, 1.000000000000000000 ) ) ;
#144 = ORIENTED_EDGE ( 'NONE', *, *, #83, .T. ) ;
#145 = ORIENTED_EDGE ( 'NONE', *, *, #305, .T. ) ;
#146 = DIRECTION ( 'NONE',  ( -0.5000000000000002220, 0.8660254037844384856, 0.0000000000000000000 ) ) ;
#147 = ORIENTED_EDGE ( 'NONE', *, *, #140, .F. ) ;
#148 = LINE ( 'NONE', #185, #235 ) ;
#149 = ADVANCED_FACE ( 'NONE', ( #31, #188 ), #304, .T. ) ;
#150 = DIRECTION ( 'NONE',  ( 1.000000000000000000, 0.0000000000000000000, 0.0000000000000000000 ) ) ;
#151 = STYLED_ITEM ( 'NONE', ( #104 ), #50 ) ;
#152 = DIRECTION ( 'NONE',  ( -0.0000000000000000000, -0.0000000000000000000, -1.000000000000000000 ) ) ;
#153 = DIRECTION ( 'NONE',  ( -0.0000000000000000000, -0.0000000000000000000, -1.000000000000000000 ) ) ;
#154 = PLANE ( 'NONE',  #280 ) ;
#155 = PRESENTATION_STYLE_ASSIGNMENT (( #190 ) ) ;
#156 = EDGE_CURVE ( 'NONE', #43, #207, #257, .T. ) ;
#157 = VECTOR ( 'NONE', #206, 39.37007874015748143 ) ;
#158 = LINE ( 'NONE', #88, #285 ) ;
#159 = VERTEX_POINT ( 'NONE', #224 ) ;
#160 = ORIENTED_EDGE ( 'NONE', *, *, #212, .F. ) ;
#161 =( GEOMETRIC_REPRESENTATION_CONTEXT ( 3 ) GLOBAL_UNCERTAINTY_ASSIGNED_CONTEXT ( ( #232 ) ) GLOBAL_UNIT_ASSIGNED_CONTEXT ( ( #164, #137, #72 ) ) REPRESENTATION_CONTEXT ( 'NONE', 'WORKASPACE' ) );
#162 = ORIENTED_EDGE ( 'NONE', *, *, #270, .T. ) ;
#163 = ORIENTED_EDGE ( 'NONE', *, *, #194, .T. ) ;
#164 =( CONVERSION_BASED_UNIT ( 'INCH', #215 ) LENGTH_UNIT ( ) NAMED_UNIT ( #181 ) );
#165 = CARTESIAN_POINT ( 'NONE',  ( 0.1443375672974063217, 0.2500000000000000555, 0.1250000000000000000 ) ) ;
#166 =( NAMED_UNIT ( * ) PLANE_ANGLE_UNIT ( ) SI_UNIT ( $, .RADIAN. ) );
#167 = PRODUCT_DEFINITION_CONTEXT ( 'detailed design', #102, 'design' ) ;
#168 = CARTESIAN_POINT ( 'NONE',  ( 0.2886751345948129210, -3.392667169346791278E-17, 0.0000000000000000000 ) ) ;
#169 = ORIENTED_EDGE ( 'NONE', *, *, #262, .T. ) ;
#170 = DIRECTION ( 'NONE',  ( 1.000000000000000000, 1.182924880895401264E-16, 0.0000000000000000000 ) ) ;
#171 = UNCERTAINTY_MEASURE_WITH_UNIT (LENGTH_MEASURE( 1.000000000000000082E-05 ), #39, 'distance_accuracy_value', 'NONE');
#172 = CARTESIAN_POINT ( 'NONE',  ( 0.0000000000000000000, 0.0000000000000000000, 0.1250000000000000000 ) ) ;
#173 = CARTESIAN_POINT ( 'NONE',  ( -0.1443375672974064050, 0.2500000000000000555, 0.1250000000000000000 ) ) ;
#174 = EDGE_LOOP ( 'NONE', ( #277, #301, #309, #162 ) ) ;
#175 = ORIENTED_EDGE ( 'NONE', *, *, #225, .F. ) ;
#176 = DIRECTION ( 'NONE',  ( -1.000000000000000000, 0.0000000000000000000, 0.0000000000000000000 ) ) ;
#177 = EDGE_CURVE ( 'NONE', #60, #228, #290, .T. ) ;
#178 = DIRECTION ( 'NONE',  ( -0.5000000000000002220, 0.8660254037844384856, 0.0000000000000000000 ) ) ;
#179 = DIRECTION ( 'NONE',  ( -0.5000000000000000000, -0.8660254037844385966, 0.0000000000000000000 ) ) ;
#180 = FACE_OUTER_BOUND ( 'NONE', #227, .T. ) ;
#181 = DIMENSIONAL_EXPONENTS ( 1.000000000000000000, 0.0000000000000000000, 0.0000000000000000000, 0.0000000000000000000, 0.0000000000000000000, 0.0000000000000000000, 0.0000000000000000000 ) ;
#182 = LINE ( 'NONE', #239, #281 ) ;
#183 = EDGE_CURVE ( 'NONE', #78, #78, #73, .T. ) ;
#184 = EDGE_CURVE ( 'NONE', #81, #248, #138, .T. ) ;
#185 = CARTESIAN_POINT ( 'NONE',  ( 0.2886751345948129210, -3.392667169346791278E-17, 0.1250000000000000000 ) ) ;
#186 = VECTOR ( 'NONE', #200, 39.37007874015749564 ) ;
#187 = COLOUR_RGB ( '',1.000000000000000000, 1.000000000000000000, 1.000000000000000000 ) ;
#188 = FACE_BOUND ( 'NONE', #2, .T. ) ;
#189 = ORIENTED_EDGE ( 'NONE', *, *, #221, .T. ) ;
#190 = SURFACE_STYLE_USAGE ( .BOTH. , #214 ) ;
#191 =( NAMED_UNIT ( * ) PLANE_ANGLE_UNIT ( ) SI_UNIT ( $, .RADIAN. ) );
#192 = VERTEX_POINT ( 'NONE', #252 ) ;
#193 =( LENGTH_UNIT ( ) NAMED_UNIT ( * ) SI_UNIT ( $, .METRE. ) );
#194 = EDGE_CURVE ( 'NONE', #41, #248, #266, .T. ) ;
#195 = EDGE_LOOP ( 'NONE', ( #106, #1, #197, #10 ) ) ;
#196 = DIRECTION ( 'NONE',  ( -0.0000000000000000000, -0.0000000000000000000, -1.000000000000000000 ) ) ;
#197 = ORIENTED_EDGE ( 'NONE', *, *, #156, .T. ) ;
#198 = DIRECTION ( 'NONE',  ( 0.5000000000000002220, -0.8660254037844384856, 0.0000000000000000000 ) ) ;
#199 = CARTESIAN_POINT ( 'NONE',  ( 0.0000000000000000000, 0.0000000000000000000, 0.1250000000000000000 ) ) ;
#200 = DIRECTION ( 'NONE',  ( 0.5000000000000002220, -0.8660254037844384856, 0.0000000000000000000 ) ) ;
#201 = ADVANCED_FACE ( 'NONE', ( #218 ), #129, .T. ) ;
#202 = ORIENTED_EDGE ( 'NONE', *, *, #184, .T. ) ;
#203 = LINE ( 'NONE', #49, #237 ) ;
#204 = CARTESIAN_POINT ( 'NONE',  ( -0.1443375672974063217, -0.2499999999999999722, 0.1250000000000000000 ) ) ;
#205 = AXIS2_PLACEMENT_3D ( 'NONE', #260, #23, #300 ) ;
#206 = DIRECTION ( 'NONE',  ( -0.0000000000000000000, -0.0000000000000000000, -1.000000000000000000 ) ) ;
#207 = VERTEX_POINT ( 'NONE', #173 ) ;
#208 = ORIENTED_EDGE ( 'NONE', *, *, #184, .F. ) ;
#209 = DIRECTION ( 'NONE',  ( 1.000000000000000000, 1.182924880895401264E-16, 0.0000000000000000000 ) ) ;
#210 = EDGE_LOOP ( 'NONE', ( #169, #142, #125, #94, #202, #26 ) ) ;
#211 = FACE_OUTER_BOUND ( 'NONE', #244, .T. ) ;
#212 = EDGE_CURVE ( 'NONE', #251, #251, #263, .T. ) ;
#213 = ADVANCED_FACE ( 'NONE', ( #65 ), #89, .T. ) ;
#214 = SURFACE_SIDE_STYLE ('',( #286 ) ) ;
#215 = LENGTH_MEASURE_WITH_UNIT ( LENGTH_MEASURE( 0.02539999999999999897 ), #35 );
#216 =( LENGTH_UNIT ( ) NAMED_UNIT ( * ) SI_UNIT ( $, .METRE. ) );
#217 = CARTESIAN_POINT ( 'NONE',  ( 0.1443375672974063217, 0.2500000000000000555, 0.1250000000000000000 ) ) ;
#218 = FACE_OUTER_BOUND ( 'NONE', #236, .T. ) ;
#219 = DIRECTION ( 'NONE',  ( 0.4999999999999998890, 0.8660254037844385966, 0.0000000000000000000 ) ) ;
#220 = CARTESIAN_POINT ( 'NONE',  ( 0.2886751345948129210, -3.392667169346791278E-17, 0.1250000000000000000 ) ) ;
#221 = EDGE_CURVE ( 'NONE', #60, #259, #158, .T. ) ;
#222 = DIRECTION ( 'NONE',  ( 0.0000000000000000000, 0.0000000000000000000, 1.000000000000000000 ) ) ;
#223 = PLANE ( 'NONE',  #267 ) ;
#224 = CARTESIAN_POINT ( 'NONE',  ( 0.2886751345948129210, -3.392667169346791278E-17, 0.0000000000000000000 ) ) ;
#225 = EDGE_CURVE ( 'NONE', #283, #81, #111, .T. ) ;
#226 = PRESENTATION_LAYER_ASSIGNMENT (  '', '', ( #151 ) ) ;
#227 = EDGE_LOOP ( 'NONE', ( #123 ) ) ;
#228 = VERTEX_POINT ( 'NONE', #250 ) ;
#229 = LINE ( 'NONE', #217, #302 ) ;
#230 = FILL_AREA_STYLE_COLOUR ( '', #4 ) ;
#231 = VERTEX_POINT ( 'NONE', #42 ) ;
#232 = UNCERTAINTY_MEASURE_WITH_UNIT (LENGTH_MEASURE( 1.000000000000000082E-05 ), #164, 'distance_accuracy_value', 'NONE');
#233 = EDGE_CURVE ( 'NONE', #248, #228, #292, .T. ) ;
#234 = PRODUCT ( 'am-3948-125 500H x 125IN Spacer', 'am-3948-125 500H x 125IN Spacer', '', ( #265 ) ) ;
#235 = VECTOR ( 'NONE', #178, 39.37007874015749564 ) ;
#236 = EDGE_LOOP ( 'NONE', ( #208, #175, #144, #163 ) ) ;
#237 = VECTOR ( 'NONE', #18, 39.37007874015748143 ) ;
#238 = FACE_OUTER_BOUND ( 'NONE', #25, .T. ) ;
#239 = CARTESIAN_POINT ( 'NONE',  ( -0.1443375672974064050, 0.2500000000000000555, 0.1250000000000000000 ) ) ;
#240 = ORIENTED_EDGE ( 'NONE', *, *, #233, .F. ) ;
#241 = APPLICATION_PROTOCOL_DEFINITION ( 'draft international standard', 'automotive_design', 1998, #102 ) ;
#242 =( GEOMETRIC_REPRESENTATION_CONTEXT ( 3 ) GLOBAL_UNCERTAINTY_ASSIGNED_CONTEXT ( ( #133 ) ) GLOBAL_UNIT_ASSIGNED_CONTEXT ( ( #62, #191, #38 ) ) REPRESENTATION_CONTEXT ( 'NONE', 'WORKASPACE' ) );
#243 = SURFACE_SIDE_STYLE ('',( #93 ) ) ;
#244 = EDGE_LOOP ( 'NONE', ( #63, #114, #9, #247 ) ) ;
#245 = CARTESIAN_POINT ( 'NONE',  ( 0.3937007874015748254, 0.0000000000000000000, 0.0000000000000000000 ) ) ;
#246 = VECTOR ( 'NONE', #153, 39.37007874015748143 ) ;
#247 = ORIENTED_EDGE ( 'NONE', *, *, #225, .T. ) ;
#248 = VERTEX_POINT ( 'NONE', #105 ) ;
#249 = CARTESIAN_POINT ( 'NONE',  ( 0.3937007874015748254, 0.0000000000000000000, 0.1250000000000000000 ) ) ;
#250 = CARTESIAN_POINT ( 'NONE',  ( 0.1443375672974065438, -0.2499999999999999167, 0.0000000000000000000 ) ) ;
#251 = VERTEX_POINT ( 'NONE', #249 ) ;
#252 = CARTESIAN_POINT ( 'NONE',  ( -0.1443375672974064050, 0.2500000000000000555, 0.0000000000000000000 ) ) ;
#253 = DIRECTION ( 'NONE',  ( 1.000000000000000000, 0.0000000000000000000, -0.0000000000000000000 ) ) ;
#254 = DIRECTION ( 'NONE',  ( -1.000000000000000000, -1.182924880895401264E-16, 0.0000000000000000000 ) ) ;
#255 = AXIS2_PLACEMENT_3D ( 'NONE', #220, #298, #128 ) ;
#256 = VECTOR ( 'NONE', #170, 39.37007874015748143 ) ;
#257 = LINE ( 'NONE', #48, #282 ) ;
#258 = PRESENTATION_LAYER_ASSIGNMENT (  '', '', ( #84 ) ) ;
#259 = VERTEX_POINT ( 'NONE', #127 ) ;
#260 = CARTESIAN_POINT ( 'NONE',  ( 0.0000000000000000000, 0.0000000000000000000, 0.0000000000000000000 ) ) ;
#261 = PLANE ( 'NONE',  #274 ) ;
#262 = EDGE_CURVE ( 'NONE', #228, #159, #19, .T. ) ;
#263 = CIRCLE ( 'NONE', #115, 0.3937007874015748254 ) ;
#264 =( GEOMETRIC_REPRESENTATION_CONTEXT ( 3 ) GLOBAL_UNCERTAINTY_ASSIGNED_CONTEXT ( ( #171 ) ) GLOBAL_UNIT_ASSIGNED_CONTEXT ( ( #39, #166, #11 ) ) REPRESENTATION_CONTEXT ( 'NONE', 'WORKASPACE' ) );
#265 = PRODUCT_CONTEXT ( 'NONE', #294, 'mechanical' ) ;
#266 = LINE ( 'NONE', #47, #33 ) ;
#267 = AXIS2_PLACEMENT_3D ( 'NONE', #269, #132, #53 ) ;
#268 = DIRECTION ( 'NONE',  ( -0.0000000000000000000, -0.0000000000000000000, -1.000000000000000000 ) ) ;
#269 = CARTESIAN_POINT ( 'NONE',  ( -0.1443375672974064050, 0.2500000000000000555, 0.1250000000000000000 ) ) ;
#270 = EDGE_CURVE ( 'NONE', #43, #231, #229, .T. ) ;
#271 = EDGE_CURVE ( 'NONE', #159, #231, #57, .T. ) ;
#272 = CARTESIAN_POINT ( 'NONE',  ( -0.2886751345948128655, 6.809993419335529712E-17, 0.1250000000000000000 ) ) ;
#273 = DIRECTION ( 'NONE',  ( 0.8660254037844385966, 0.5000000000000003331, -0.0000000000000000000 ) ) ;
#274 = AXIS2_PLACEMENT_3D ( 'NONE', #165, #6, #32 ) ;
#275 = CARTESIAN_POINT ( 'NONE',  ( 0.1443375672974065438, -0.2499999999999999167, 0.1250000000000000000 ) ) ;
#276 = DIRECTION ( 'NONE',  ( -1.182924880895401264E-16, 1.000000000000000000, 0.0000000000000000000 ) ) ;
#277 = ORIENTED_EDGE ( 'NONE', *, *, #271, .F. ) ;
#278 = ORIENTED_EDGE ( 'NONE', *, *, #194, .F. ) ;
#279 = DIMENSIONAL_EXPONENTS ( 1.000000000000000000, 0.0000000000000000000, 0.0000000000000000000, 0.0000000000000000000, 0.0000000000000000000, 0.0000000000000000000, 0.0000000000000000000 ) ;
#280 = AXIS2_PLACEMENT_3D ( 'NONE', #311, #276, #254 ) ;
#281 = VECTOR ( 'NONE', #179, 39.37007874015748854 ) ;
#282 = VECTOR ( 'NONE', #176, 39.37007874015748143 ) ;
#283 = VERTEX_POINT ( 'NONE', #126 ) ;
#284 = PLANE ( 'NONE',  #44 ) ;
#285 = VECTOR ( 'NONE', #219, 39.37007874015748854 ) ;
#286 = SURFACE_STYLE_FILL_AREA ( #97 ) ;
#287 = ORIENTED_EDGE ( 'NONE', *, *, #177, .F. ) ;
#288 = PRODUCT_DEFINITION_FORMATION_WITH_SPECIFIED_SOURCE ( 'ANY', '', #234, .NOT_KNOWN. ) ;
#289 = ORIENTED_EDGE ( 'NONE', *, *, #156, .F. ) ;
#290 = LINE ( 'NONE', #275, #246 ) ;
#291 = MECHANICAL_DESIGN_GEOMETRIC_PRESENTATION_REPRESENTATION (  '', ( #151 ), #242 ) ;
#292 = LINE ( 'NONE', #108, #256 ) ;
#293 = DIRECTION ( 'NONE',  ( 1.000000000000000000, 0.0000000000000000000, 0.0000000000000000000 ) ) ;
#294 = APPLICATION_CONTEXT ( 'automotive_design' ) ;
#295 = CARTESIAN_POINT ( 'NONE',  ( 0.2886751345948129210, -3.392667169346791278E-17, 0.1250000000000000000 ) ) ;
#296 = CARTESIAN_POINT ( 'NONE',  ( 0.1443375672974065438, -0.2499999999999999167, 0.0000000000000000000 ) ) ;
#297 = CARTESIAN_POINT ( 'NONE',  ( -0.1443375672974064050, 0.2500000000000000555, 0.1250000000000000000 ) ) ;
#298 = DIRECTION ( 'NONE',  ( -0.8660254037844385966, -0.5000000000000003331, 0.0000000000000000000 ) ) ;
#299 = CARTESIAN_POINT ( 'NONE',  ( -0.2886751345948128655, 6.809993419335529712E-17, 0.1250000000000000000 ) ) ;
#300 = DIRECTION ( 'NONE',  ( 1.000000000000000000, 0.0000000000000000000, -0.0000000000000000000 ) ) ;
#301 = ORIENTED_EDGE ( 'NONE', *, *, #305, .F. ) ;
#302 = VECTOR ( 'NONE', #40, 39.37007874015748143 ) ;
#303 = EDGE_LOOP ( 'NONE', ( #120 ) ) ;
#304 = PLANE ( 'NONE',  #113 ) ;
#305 = EDGE_CURVE ( 'NONE', #259, #159, #92, .T. ) ;
#306 = DIMENSIONAL_EXPONENTS ( 1.000000000000000000, 0.0000000000000000000, 0.0000000000000000000, 0.0000000000000000000, 0.0000000000000000000, 0.0000000000000000000, 0.0000000000000000000 ) ;
#307 = VECTOR ( 'NONE', #46, 39.37007874015748143 ) ;
#308 = LINE ( 'NONE', #20, #36 ) ;
#309 = ORIENTED_EDGE ( 'NONE', *, *, #140, .T. ) ;
#310 = VECTOR ( 'NONE', #198, 39.37007874015749564 ) ;
#311 = CARTESIAN_POINT ( 'NONE',  ( -0.1443375672974063217, -0.2499999999999999722, 0.1250000000000000000 ) ) ;
ENDSEC;
END-ISO-10303-21;
