ISO-10303-21;
HEADER;
FILE_DESCRIPTION (( 'STEP AP214' ),
    '1' );
FILE_NAME ('am-3948-063 500H x 063IN Spacer.STEP',
    '2018-09-24T21:05:44',
    ( '' ),
    ( '' ),
    'SwSTEP 2.0',
    'SolidWorks 2018',
    '' );
FILE_SCHEMA (( 'AUTOMOTIVE_DESIGN' ));
ENDSEC;

DATA;
#1 = FACE_OUTER_BOUND ( 'NONE', #201, .T. ) ;
#2 = ORIENTED_EDGE ( 'NONE', *, *, #182, .T. ) ;
#3 = CARTESIAN_POINT ( 'NONE',  ( -0.1443375672974064050, 0.2500000000000000555, 0.0000000000000000000 ) ) ;
#4 = SURFACE_STYLE_FILL_AREA ( #153 ) ;
#5 =( NAMED_UNIT ( * ) PLANE_ANGLE_UNIT ( ) SI_UNIT ( $, .RADIAN. ) );
#6 = EDGE_CURVE ( 'NONE', #15, #292, #211, .T. ) ;
#7 = ORIENTED_EDGE ( 'NONE', *, *, #233, .F. ) ;
#8 = EDGE_CURVE ( 'NONE', #273, #254, #103, .T. ) ;
#9 = ORIENTED_EDGE ( 'NONE', *, *, #286, .T. ) ;
#10 = FACE_OUTER_BOUND ( 'NONE', #198, .T. ) ;
#11 = ADVANCED_FACE ( 'NONE', ( #266 ), #272, .T. ) ;
#12 = DIRECTION ( 'NONE',  ( -0.5000000000000000000, -0.8660254037844385966, 0.0000000000000000000 ) ) ;
#13 = CARTESIAN_POINT ( 'NONE',  ( 0.1443375672974065438, -0.2499999999999999167, 0.06250000000000000000 ) ) ;
#14 = CARTESIAN_POINT ( 'NONE',  ( 0.1443375672974063217, 0.2500000000000000555, 0.06250000000000000000 ) ) ;
#15 = VERTEX_POINT ( 'NONE', #212 ) ;
#16 = CARTESIAN_POINT ( 'NONE',  ( -0.1443375672974064050, 0.2500000000000000555, 0.06250000000000000000 ) ) ;
#17 = CARTESIAN_POINT ( 'NONE',  ( 0.1443375672974063217, 0.2500000000000000555, 0.06250000000000000000 ) ) ;
#18 = CARTESIAN_POINT ( 'NONE',  ( -0.1443375672974064050, 0.2500000000000000555, 0.06250000000000000000 ) ) ;
#19 = VERTEX_POINT ( 'NONE', #47 ) ;
#20 = AXIS2_PLACEMENT_3D ( 'NONE', #269, #191, #226 ) ;
#21 =( LENGTH_UNIT ( ) NAMED_UNIT ( * ) SI_UNIT ( $, .METRE. ) );
#22 = VERTEX_POINT ( 'NONE', #126 ) ;
#23 = CARTESIAN_POINT ( 'NONE',  ( -0.2886751345948128655, 6.809993419335529712E-17, 0.06250000000000000000 ) ) ;
#24 = ORIENTED_EDGE ( 'NONE', *, *, #8, .F. ) ;
#25 = DIRECTION ( 'NONE',  ( 0.0000000000000000000, -1.000000000000000000, 0.0000000000000000000 ) ) ;
#26 = VECTOR ( 'NONE', #259, 39.37007874015749564 ) ;
#27 = DIMENSIONAL_EXPONENTS ( 1.000000000000000000, 0.0000000000000000000, 0.0000000000000000000, 0.0000000000000000000, 0.0000000000000000000, 0.0000000000000000000, 0.0000000000000000000 ) ;
#28 = LINE ( 'NONE', #174, #251 ) ;
#29 = EDGE_LOOP ( 'NONE', ( #223, #24, #275, #247 ) ) ;
#30 = ORIENTED_EDGE ( 'NONE', *, *, #199, .T. ) ;
#31 = ORIENTED_EDGE ( 'NONE', *, *, #303, .F. ) ;
#32 = AXIS2_PLACEMENT_3D ( 'NONE', #224, #40, #43 ) ;
#33 = DIRECTION ( 'NONE',  ( -0.5000000000000002220, 0.8660254037844384856, 0.0000000000000000000 ) ) ;
#34 = ADVANCED_FACE ( 'NONE', ( #227 ), #300, .T. ) ;
#35 = EDGE_LOOP ( 'NONE', ( #195, #105, #30, #172 ) ) ;
#36 = CARTESIAN_POINT ( 'NONE',  ( 0.0000000000000000000, 0.0000000000000000000, 0.06250000000000000000 ) ) ;
#37 = DIRECTION ( 'NONE',  ( -0.0000000000000000000, -0.0000000000000000000, -1.000000000000000000 ) ) ;
#38 = DIRECTION ( 'NONE',  ( 0.0000000000000000000, 0.0000000000000000000, 1.000000000000000000 ) ) ;
#39 = ORIENTED_EDGE ( 'NONE', *, *, #54, .T. ) ;
#40 = DIRECTION ( 'NONE',  ( 0.0000000000000000000, 0.0000000000000000000, 1.000000000000000000 ) ) ;
#41 = PRESENTATION_STYLE_ASSIGNMENT (( #179 ) ) ;
#42 = VECTOR ( 'NONE', #169, 39.37007874015749564 ) ;
#43 = DIRECTION ( 'NONE',  ( 1.000000000000000000, 0.0000000000000000000, -0.0000000000000000000 ) ) ;
#44 = CARTESIAN_POINT ( 'NONE',  ( 0.3937007874015748254, 0.0000000000000000000, 0.06250000000000000000 ) ) ;
#45 = EDGE_LOOP ( 'NONE', ( #214 ) ) ;
#46 = VERTEX_POINT ( 'NONE', #114 ) ;
#47 = CARTESIAN_POINT ( 'NONE',  ( 0.3937007874015748254, 0.0000000000000000000, 0.0000000000000000000 ) ) ;
#48 =( NAMED_UNIT ( * ) PLANE_ANGLE_UNIT ( ) SI_UNIT ( $, .RADIAN. ) );
#49 = CARTESIAN_POINT ( 'NONE',  ( -0.2886751345948128655, 6.809993419335529712E-17, 0.0000000000000000000 ) ) ;
#50 = CYLINDRICAL_SURFACE ( 'NONE', #119, 0.3937007874015748254 ) ;
#51 = MECHANICAL_DESIGN_GEOMETRIC_PRESENTATION_REPRESENTATION (  '', ( #120 ), #243 ) ;
#52 = LINE ( 'NONE', #49, #104 ) ;
#53 = ORIENTED_EDGE ( 'NONE', *, *, #199, .F. ) ;
#54 = EDGE_CURVE ( 'NONE', #254, #292, #133, .T. ) ;
#55 = LINE ( 'NONE', #310, #138 ) ;
#56 = ORIENTED_EDGE ( 'NONE', *, *, #229, .T. ) ;
#57 =( CONVERSION_BASED_UNIT ( 'INCH', #101 ) LENGTH_UNIT ( ) NAMED_UNIT ( #27 ) );
#58 = LINE ( 'NONE', #14, #147 ) ;
#59 = DIRECTION ( 'NONE',  ( -0.0000000000000000000, -0.0000000000000000000, -1.000000000000000000 ) ) ;
#60 = ADVANCED_FACE ( 'NONE', ( #10 ), #130, .T. ) ;
#61 = CARTESIAN_POINT ( 'NONE',  ( -0.1443375672974064050, 0.2500000000000000555, 0.0000000000000000000 ) ) ;
#62 = EDGE_CURVE ( 'NONE', #186, #263, #260, .T. ) ;
#63 =( LENGTH_UNIT ( ) NAMED_UNIT ( * ) SI_UNIT ( $, .METRE. ) );
#64 = FACE_BOUND ( 'NONE', #250, .T. ) ;
#65 = ORIENTED_EDGE ( 'NONE', *, *, #286, .F. ) ;
#66 = ORIENTED_EDGE ( 'NONE', *, *, #253, .T. ) ;
#67 = EDGE_LOOP ( 'NONE', ( #149, #87, #209, #204 ) ) ;
#68 = VERTEX_POINT ( 'NONE', #44 ) ;
#69 = FILL_AREA_STYLE_COLOUR ( '', #73 ) ;
#70 = PLANE ( 'NONE',  #175 ) ;
#71 = DIRECTION ( 'NONE',  ( -0.5000000000000002220, 0.8660254037844384856, 0.0000000000000000000 ) ) ;
#72 = DIRECTION ( 'NONE',  ( -0.0000000000000000000, -0.0000000000000000000, -1.000000000000000000 ) ) ;
#73 = COLOUR_RGB ( '',1.000000000000000000, 1.000000000000000000, 1.000000000000000000 ) ;
#74 = LINE ( 'NONE', #257, #86 ) ;
#75 = DIRECTION ( 'NONE',  ( -0.4999999999999998890, -0.8660254037844385966, 0.0000000000000000000 ) ) ;
#76 = ORIENTED_EDGE ( 'NONE', *, *, #267, .F. ) ;
#77 =( NAMED_UNIT ( * ) PLANE_ANGLE_UNIT ( ) SI_UNIT ( $, .RADIAN. ) );
#78 = VECTOR ( 'NONE', #12, 39.37007874015748854 ) ;
#79 = PRESENTATION_STYLE_ASSIGNMENT (( #122 ) ) ;
#80 = LINE ( 'NONE', #283, #42 ) ;
#81 = CARTESIAN_POINT ( 'NONE',  ( 0.1443375672974065438, -0.2499999999999999167, 0.0000000000000000000 ) ) ;
#82 = CLOSED_SHELL ( 'NONE', ( #196, #262, #295, #242, #34, #60, #249, #11, #264 ) ) ;
#83 = LINE ( 'NONE', #187, #123 ) ;
#84 = ADVANCED_BREP_SHAPE_REPRESENTATION ( 'am-3948-063 500H x 063IN Spacer', ( #181, #222 ), #146 ) ;
#85 = PRODUCT ( 'am-3948-063 500H x 063IN Spacer', 'am-3948-063 500H x 063IN Spacer', '', ( #136 ) ) ;
#86 = VECTOR ( 'NONE', #102, 39.37007874015748143 ) ;
#87 = ORIENTED_EDGE ( 'NONE', *, *, #240, .F. ) ;
#88 = LINE ( 'NONE', #18, #265 ) ;
#89 =( LENGTH_UNIT ( ) NAMED_UNIT ( * ) SI_UNIT ( $, .METRE. ) );
#90 = DIRECTION ( 'NONE',  ( 0.5000000000000002220, -0.8660254037844384856, 0.0000000000000000000 ) ) ;
#91 = FACE_OUTER_BOUND ( 'NONE', #190, .T. ) ;
#92 = DIRECTION ( 'NONE',  ( 1.000000000000000000, 0.0000000000000000000, 0.0000000000000000000 ) ) ;
#93 = ORIENTED_EDGE ( 'NONE', *, *, #154, .T. ) ;
#94 = EDGE_CURVE ( 'NONE', #46, #254, #163, .T. ) ;
#95 = CARTESIAN_POINT ( 'NONE',  ( -0.1443375672974063217, -0.2499999999999999722, 0.0000000000000000000 ) ) ;
#96 = EDGE_LOOP ( 'NONE', ( #171 ) ) ;
#97 = PRODUCT_DEFINITION_SHAPE ( 'NONE', 'NONE',  #124 ) ;
#98 = VECTOR ( 'NONE', #248, 39.37007874015748143 ) ;
#99 = FACE_OUTER_BOUND ( 'NONE', #293, .T. ) ;
#100 = DIMENSIONAL_EXPONENTS ( 1.000000000000000000, 0.0000000000000000000, 0.0000000000000000000, 0.0000000000000000000, 0.0000000000000000000, 0.0000000000000000000, 0.0000000000000000000 ) ;
#101 = LENGTH_MEASURE_WITH_UNIT ( LENGTH_MEASURE( 0.02539999999999999897 ), #89 );
#102 = DIRECTION ( 'NONE',  ( -0.0000000000000000000, -0.0000000000000000000, -1.000000000000000000 ) ) ;
#103 = LINE ( 'NONE', #277, #221 ) ;
#104 = VECTOR ( 'NONE', #90, 39.37007874015749564 ) ;
#105 = ORIENTED_EDGE ( 'NONE', *, *, #182, .F. ) ;
#106 = CARTESIAN_POINT ( 'NONE',  ( -0.2886751345948128655, 6.809993419335529712E-17, 0.06250000000000000000 ) ) ;
#107 = CARTESIAN_POINT ( 'NONE',  ( -0.1443375672974063217, -0.2499999999999999722, 0.06250000000000000000 ) ) ;
#108 = DIRECTION ( 'NONE',  ( 0.4999999999999998890, 0.8660254037844385966, 0.0000000000000000000 ) ) ;
#109 = VERTEX_POINT ( 'NONE', #306 ) ;
#110 = CARTESIAN_POINT ( 'NONE',  ( -0.2886751345948128655, 6.809993419335529712E-17, 0.06250000000000000000 ) ) ;
#111 = ORIENTED_EDGE ( 'NONE', *, *, #62, .T. ) ;
#112 = DIRECTION ( 'NONE',  ( 1.000000000000000000, 0.0000000000000000000, 0.0000000000000000000 ) ) ;
#113 = EDGE_CURVE ( 'NONE', #268, #46, #80, .T. ) ;
#114 = CARTESIAN_POINT ( 'NONE',  ( 0.1443375672974063217, 0.2500000000000000555, 0.0000000000000000000 ) ) ;
#115 = UNCERTAINTY_MEASURE_WITH_UNIT (LENGTH_MEASURE( 1.000000000000000082E-05 ), #236, 'distance_accuracy_value', 'NONE');
#116 = PRODUCT_DEFINITION_CONTEXT ( 'detailed design', #291, 'design' ) ;
#117 = CIRCLE ( 'NONE', #166, 0.3937007874015748254 ) ;
#118 = CIRCLE ( 'NONE', #139, 0.3937007874015748254 ) ;
#119 = AXIS2_PLACEMENT_3D ( 'NONE', #178, #59, #193 ) ;
#120 = STYLED_ITEM ( 'NONE', ( #41 ), #84 ) ;
#121 = VECTOR ( 'NONE', #71, 39.37007874015749564 ) ;
#122 = SURFACE_STYLE_USAGE ( .BOTH. , #142 ) ;
#123 = VECTOR ( 'NONE', #72, 39.37007874015748143 ) ;
#124 = PRODUCT_DEFINITION ( 'UNKNOWN', '', #131, #116 ) ;
#125 = LINE ( 'NONE', #13, #167 ) ;
#126 = CARTESIAN_POINT ( 'NONE',  ( 0.1443375672974063217, 0.2500000000000000555, 0.06250000000000000000 ) ) ;
#127 = VERTEX_POINT ( 'NONE', #107 ) ;
#128 = EDGE_CURVE ( 'NONE', #68, #68, #117, .T. ) ;
#129 = VECTOR ( 'NONE', #37, 39.37007874015748143 ) ;
#130 = PLANE ( 'NONE',  #305 ) ;
#131 = PRODUCT_DEFINITION_FORMATION_WITH_SPECIFIED_SOURCE ( 'ANY', '', #85, .NOT_KNOWN. ) ;
#132 = CARTESIAN_POINT ( 'NONE',  ( 0.0000000000000000000, 0.0000000000000000000, 0.06250000000000000000 ) ) ;
#133 = LINE ( 'NONE', #61, #78 ) ;
#134 = FILL_AREA_STYLE_COLOUR ( '', #144 ) ;
#135 = DIRECTION ( 'NONE',  ( -1.000000000000000000, 0.0000000000000000000, 0.0000000000000000000 ) ) ;
#136 = PRODUCT_CONTEXT ( 'NONE', #258, 'mechanical' ) ;
#137 = EDGE_LOOP ( 'NONE', ( #56, #287, #162, #39, #66, #111 ) ) ;
#138 = VECTOR ( 'NONE', #135, 39.37007874015748143 ) ;
#139 = AXIS2_PLACEMENT_3D ( 'NONE', #188, #38, #210 ) ;
#140 = FACE_BOUND ( 'NONE', #137, .T. ) ;
#141 = LINE ( 'NONE', #252, #220 ) ;
#142 = SURFACE_SIDE_STYLE ('',( #244 ) ) ;
#143 = FACE_OUTER_BOUND ( 'NONE', #45, .T. ) ;
#144 = COLOUR_RGB ( '',1.000000000000000000, 1.000000000000000000, 1.000000000000000000 ) ;
#145 = ORIENTED_EDGE ( 'NONE', *, *, #235, .F. ) ;
#146 =( GEOMETRIC_REPRESENTATION_CONTEXT ( 3 ) GLOBAL_UNCERTAINTY_ASSIGNED_CONTEXT ( ( #115 ) ) GLOBAL_UNIT_ASSIGNED_CONTEXT ( ( #236, #77, #237 ) ) REPRESENTATION_CONTEXT ( 'NONE', 'WORKASPACE' ) );
#147 = VECTOR ( 'NONE', #246, 39.37007874015748143 ) ;
#148 = LINE ( 'NONE', #234, #129 ) ;
#149 = ORIENTED_EDGE ( 'NONE', *, *, #62, .F. ) ;
#150 = LINE ( 'NONE', #207, #121 ) ;
#151 = VECTOR ( 'NONE', #159, 39.37007874015748143 ) ;
#152 = DIRECTION ( 'NONE',  ( -0.8660254037844387076, 0.4999999999999999445, 0.0000000000000000000 ) ) ;
#153 = FILL_AREA_STYLE ('',( #134 ) ) ;
#154 = EDGE_CURVE ( 'NONE', #109, #164, #125, .T. ) ;
#155 = SHAPE_DEFINITION_REPRESENTATION ( #97, #84 ) ;
#156 = CARTESIAN_POINT ( 'NONE',  ( -0.2886751345948128655, 6.809993419335529712E-17, 0.0000000000000000000 ) ) ;
#157 = APPLICATION_PROTOCOL_DEFINITION ( 'draft international standard', 'automotive_design', 1998, #291 ) ;
#158 = MECHANICAL_DESIGN_GEOMETRIC_PRESENTATION_REPRESENTATION (  '', ( #290 ), #160 ) ;
#159 = DIRECTION ( 'NONE',  ( -1.000000000000000000, 0.0000000000000000000, 0.0000000000000000000 ) ) ;
#160 =( GEOMETRIC_REPRESENTATION_CONTEXT ( 3 ) GLOBAL_UNCERTAINTY_ASSIGNED_CONTEXT ( ( #232 ) ) GLOBAL_UNIT_ASSIGNED_CONTEXT ( ( #57, #5, #180 ) ) REPRESENTATION_CONTEXT ( 'NONE', 'WORKASPACE' ) );
#161 = PRESENTATION_LAYER_ASSIGNMENT (  '', '', ( #290 ) ) ;
#162 = ORIENTED_EDGE ( 'NONE', *, *, #94, .T. ) ;
#163 = LINE ( 'NONE', #301, #151 ) ;
#164 = VERTEX_POINT ( 'NONE', #278 ) ;
#165 = PLANE ( 'NONE',  #294 ) ;
#166 = AXIS2_PLACEMENT_3D ( 'NONE', #36, #168, #92 ) ;
#167 = VECTOR ( 'NONE', #108, 39.37007874015748854 ) ;
#168 = DIRECTION ( 'NONE',  ( 0.0000000000000000000, 0.0000000000000000000, 1.000000000000000000 ) ) ;
#169 = DIRECTION ( 'NONE',  ( -0.5000000000000002220, 0.8660254037844384856, 0.0000000000000000000 ) ) ;
#170 = DIRECTION ( 'NONE',  ( 1.000000000000000000, 0.0000000000000000000, -0.0000000000000000000 ) ) ;
#171 = ORIENTED_EDGE ( 'NONE', *, *, #128, .F. ) ;
#172 = ORIENTED_EDGE ( 'NONE', *, *, #228, .T. ) ;
#173 = DIRECTION ( 'NONE',  ( 0.5000000000000002220, -0.8660254037844384856, 0.0000000000000000000 ) ) ;
#174 = CARTESIAN_POINT ( 'NONE',  ( -0.1443375672974063217, -0.2499999999999999722, 0.06250000000000000000 ) ) ;
#175 = AXIS2_PLACEMENT_3D ( 'NONE', #132, #302, #170 ) ;
#176 = PLANE ( 'NONE',  #20 ) ;
#177 = CARTESIAN_POINT ( 'NONE',  ( 0.0000000000000000000, 0.0000000000000000000, 0.0000000000000000000 ) ) ;
#178 = CARTESIAN_POINT ( 'NONE',  ( 0.0000000000000000000, 0.0000000000000000000, 0.06250000000000000000 ) ) ;
#179 = SURFACE_STYLE_USAGE ( .BOTH. , #309 ) ;
#180 =( NAMED_UNIT ( * ) SI_UNIT ( $, .STERADIAN. ) SOLID_ANGLE_UNIT ( ) );
#181 = MANIFOLD_SOLID_BREP ( 'Boss-Extrude1', #82 ) ;
#182 = EDGE_CURVE ( 'NONE', #164, #268, #74, .T. ) ;
#183 = ORIENTED_EDGE ( 'NONE', *, *, #8, .T. ) ;
#184 = FILL_AREA_STYLE ('',( #69 ) ) ;
#185 = LINE ( 'NONE', #110, #26 ) ;
#186 = VERTEX_POINT ( 'NONE', #231 ) ;
#187 = CARTESIAN_POINT ( 'NONE',  ( 0.1443375672974065438, -0.2499999999999999167, 0.06250000000000000000 ) ) ;
#188 = CARTESIAN_POINT ( 'NONE',  ( 0.0000000000000000000, 0.0000000000000000000, 0.0000000000000000000 ) ) ;
#189 = DIRECTION ( 'NONE',  ( 0.8660254037844385966, 0.5000000000000003331, -0.0000000000000000000 ) ) ;
#190 = EDGE_LOOP ( 'NONE', ( #279, #145, #93, #2 ) ) ;
#191 = DIRECTION ( 'NONE',  ( -1.182924880895401264E-16, 1.000000000000000000, 0.0000000000000000000 ) ) ;
#192 = DIRECTION ( 'NONE',  ( -0.0000000000000000000, -0.0000000000000000000, -1.000000000000000000 ) ) ;
#193 = DIRECTION ( 'NONE',  ( -1.000000000000000000, 0.0000000000000000000, 0.0000000000000000000 ) ) ;
#194 =( CONVERSION_BASED_UNIT ( 'INCH', #218 ) LENGTH_UNIT ( ) NAMED_UNIT ( #288 ) );
#195 = ORIENTED_EDGE ( 'NONE', *, *, #113, .F. ) ;
#196 = ADVANCED_FACE ( 'NONE', ( #99, #64 ), #70, .T. ) ;
#197 = PRESENTATION_LAYER_ASSIGNMENT (  '', '', ( #120 ) ) ;
#198 = EDGE_LOOP ( 'NONE', ( #205, #274, #9, #183 ) ) ;
#199 = EDGE_CURVE ( 'NONE', #164, #22, #150, .T. ) ;
#200 = FACE_OUTER_BOUND ( 'NONE', #67, .T. ) ;
#201 = EDGE_LOOP ( 'NONE', ( #7 ) ) ;
#202 = AXIS2_PLACEMENT_3D ( 'NONE', #304, #152, #75 ) ;
#203 = PLANE ( 'NONE',  #32 ) ;
#204 = ORIENTED_EDGE ( 'NONE', *, *, #235, .T. ) ;
#205 = ORIENTED_EDGE ( 'NONE', *, *, #94, .F. ) ;
#206 = VECTOR ( 'NONE', #311, 39.37007874015748143 ) ;
#207 = CARTESIAN_POINT ( 'NONE',  ( 0.2886751345948129210, -3.392667169346791278E-17, 0.06250000000000000000 ) ) ;
#208 = LENGTH_MEASURE_WITH_UNIT ( LENGTH_MEASURE( 0.02539999999999999897 ), #63 );
#209 = ORIENTED_EDGE ( 'NONE', *, *, #267, .T. ) ;
#210 = DIRECTION ( 'NONE',  ( 1.000000000000000000, 0.0000000000000000000, 0.0000000000000000000 ) ) ;
#211 = LINE ( 'NONE', #106, #206 ) ;
#212 = CARTESIAN_POINT ( 'NONE',  ( -0.2886751345948128655, 6.809993419335529712E-17, 0.06250000000000000000 ) ) ;
#213 = DIRECTION ( 'NONE',  ( -0.5000000000000000000, -0.8660254037844385966, 0.0000000000000000000 ) ) ;
#214 = ORIENTED_EDGE ( 'NONE', *, *, #233, .T. ) ;
#215 =( NAMED_UNIT ( * ) SI_UNIT ( $, .STERADIAN. ) SOLID_ANGLE_UNIT ( ) );
#216 = CARTESIAN_POINT ( 'NONE',  ( -0.1443375672974064050, 0.2500000000000000555, 0.06250000000000000000 ) ) ;
#217 = CARTESIAN_POINT ( 'NONE',  ( 0.2886751345948129210, -3.392667169346791278E-17, 0.06250000000000000000 ) ) ;
#218 = LENGTH_MEASURE_WITH_UNIT ( LENGTH_MEASURE( 0.02539999999999999897 ), #21 );
#219 = PRODUCT_RELATED_PRODUCT_CATEGORY ( 'part', '', ( #85 ) ) ;
#220 = VECTOR ( 'NONE', #281, 39.37007874015748854 ) ;
#221 = VECTOR ( 'NONE', #192, 39.37007874015748143 ) ;
#222 = AXIS2_PLACEMENT_3D ( 'NONE', #177, #238, #112 ) ;
#223 = ORIENTED_EDGE ( 'NONE', *, *, #54, .F. ) ;
#224 = CARTESIAN_POINT ( 'NONE',  ( 0.0000000000000000000, 0.0000000000000000000, 0.0000000000000000000 ) ) ;
#225 = AXIS2_PLACEMENT_3D ( 'NONE', #217, #296, #173 ) ;
#226 = DIRECTION ( 'NONE',  ( -1.000000000000000000, -1.182924880895401264E-16, 0.0000000000000000000 ) ) ;
#227 = FACE_OUTER_BOUND ( 'NONE', #35, .T. ) ;
#228 = EDGE_CURVE ( 'NONE', #22, #46, #58, .T. ) ;
#229 = EDGE_CURVE ( 'NONE', #263, #268, #141, .T. ) ;
#230 = FACE_OUTER_BOUND ( 'NONE', #29, .T. ) ;
#231 = CARTESIAN_POINT ( 'NONE',  ( -0.1443375672974063217, -0.2499999999999999722, 0.0000000000000000000 ) ) ;
#232 = UNCERTAINTY_MEASURE_WITH_UNIT (LENGTH_MEASURE( 1.000000000000000082E-05 ), #57, 'distance_accuracy_value', 'NONE');
#233 = EDGE_CURVE ( 'NONE', #19, #19, #118, .T. ) ;
#234 = CARTESIAN_POINT ( 'NONE',  ( -0.1443375672974063217, -0.2499999999999999722, 0.06250000000000000000 ) ) ;
#235 = EDGE_CURVE ( 'NONE', #109, #263, #83, .T. ) ;
#236 =( CONVERSION_BASED_UNIT ( 'INCH', #208 ) LENGTH_UNIT ( ) NAMED_UNIT ( #100 ) );
#237 =( NAMED_UNIT ( * ) SI_UNIT ( $, .STERADIAN. ) SOLID_ANGLE_UNIT ( ) );
#238 = DIRECTION ( 'NONE',  ( 0.0000000000000000000, 0.0000000000000000000, 1.000000000000000000 ) ) ;
#239 = AXIS2_PLACEMENT_3D ( 'NONE', #23, #189, #33 ) ;
#240 = EDGE_CURVE ( 'NONE', #127, #186, #148, .T. ) ;
#241 = DIRECTION ( 'NONE',  ( 0.0000000000000000000, -0.0000000000000000000, -1.000000000000000000 ) ) ;
#242 = ADVANCED_FACE ( 'NONE', ( #91 ), #255, .T. ) ;
#243 =( GEOMETRIC_REPRESENTATION_CONTEXT ( 3 ) GLOBAL_UNCERTAINTY_ASSIGNED_CONTEXT ( ( #299 ) ) GLOBAL_UNIT_ASSIGNED_CONTEXT ( ( #194, #48, #215 ) ) REPRESENTATION_CONTEXT ( 'NONE', 'WORKASPACE' ) );
#244 = SURFACE_STYLE_FILL_AREA ( #184 ) ;
#245 = DIRECTION ( 'NONE',  ( 0.5000000000000001110, 0.8660254037844385966, 0.0000000000000000000 ) ) ;
#246 = DIRECTION ( 'NONE',  ( -0.0000000000000000000, -0.0000000000000000000, -1.000000000000000000 ) ) ;
#247 = ORIENTED_EDGE ( 'NONE', *, *, #6, .T. ) ;
#248 = DIRECTION ( 'NONE',  ( 1.000000000000000000, 1.182924880895401264E-16, 0.0000000000000000000 ) ) ;
#249 = ADVANCED_FACE ( 'NONE', ( #230 ), #165, .T. ) ;
#250 = EDGE_LOOP ( 'NONE', ( #53, #280, #76, #289, #31, #65 ) ) ;
#251 = VECTOR ( 'NONE', #297, 39.37007874015748143 ) ;
#252 = CARTESIAN_POINT ( 'NONE',  ( 0.1443375672974065438, -0.2499999999999999167, 0.0000000000000000000 ) ) ;
#253 = EDGE_CURVE ( 'NONE', #292, #186, #52, .T. ) ;
#254 = VERTEX_POINT ( 'NONE', #3 ) ;
#255 = PLANE ( 'NONE',  #202 ) ;
#256 = CARTESIAN_POINT ( 'NONE',  ( 0.2886751345948129210, -3.392667169346791278E-17, 0.0000000000000000000 ) ) ;
#257 = CARTESIAN_POINT ( 'NONE',  ( 0.2886751345948129210, -3.392667169346791278E-17, 0.06250000000000000000 ) ) ;
#258 = APPLICATION_CONTEXT ( 'automotive_design' ) ;
#259 = DIRECTION ( 'NONE',  ( 0.5000000000000002220, -0.8660254037844384856, 0.0000000000000000000 ) ) ;
#260 = LINE ( 'NONE', #95, #98 ) ;
#261 = APPLICATION_PROTOCOL_DEFINITION ( 'draft international standard', 'automotive_design', 1998, #258 ) ;
#262 = ADVANCED_FACE ( 'NONE', ( #1, #140 ), #203, .F. ) ;
#263 = VERTEX_POINT ( 'NONE', #81 ) ;
#264 = ADVANCED_FACE ( 'NONE', ( #200 ), #176, .T. ) ;
#265 = VECTOR ( 'NONE', #213, 39.37007874015748854 ) ;
#266 = FACE_OUTER_BOUND ( 'NONE', #308, .T. ) ;
#267 = EDGE_CURVE ( 'NONE', #127, #109, #28, .T. ) ;
#268 = VERTEX_POINT ( 'NONE', #256 ) ;
#269 = CARTESIAN_POINT ( 'NONE',  ( -0.1443375672974063217, -0.2499999999999999722, 0.06250000000000000000 ) ) ;
#270 = ORIENTED_EDGE ( 'NONE', *, *, #6, .F. ) ;
#271 = ORIENTED_EDGE ( 'NONE', *, *, #128, .T. ) ;
#272 = PLANE ( 'NONE',  #239 ) ;
#273 = VERTEX_POINT ( 'NONE', #16 ) ;
#274 = ORIENTED_EDGE ( 'NONE', *, *, #228, .F. ) ;
#275 = ORIENTED_EDGE ( 'NONE', *, *, #303, .T. ) ;
#276 = ORIENTED_EDGE ( 'NONE', *, *, #253, .F. ) ;
#277 = CARTESIAN_POINT ( 'NONE',  ( -0.1443375672974064050, 0.2500000000000000555, 0.06250000000000000000 ) ) ;
#278 = CARTESIAN_POINT ( 'NONE',  ( 0.2886751345948129210, -3.392667169346791278E-17, 0.06250000000000000000 ) ) ;
#279 = ORIENTED_EDGE ( 'NONE', *, *, #229, .F. ) ;
#280 = ORIENTED_EDGE ( 'NONE', *, *, #154, .F. ) ;
#281 = DIRECTION ( 'NONE',  ( 0.4999999999999998890, 0.8660254037844385966, 0.0000000000000000000 ) ) ;
#282 = ORIENTED_EDGE ( 'NONE', *, *, #240, .T. ) ;
#283 = CARTESIAN_POINT ( 'NONE',  ( 0.2886751345948129210, -3.392667169346791278E-17, 0.0000000000000000000 ) ) ;
#284 = DIRECTION ( 'NONE',  ( 0.8660254037844385966, -0.5000000000000001110, 0.0000000000000000000 ) ) ;
#285 = ORIENTED_EDGE ( 'NONE', *, *, #298, .T. ) ;
#286 = EDGE_CURVE ( 'NONE', #22, #273, #55, .T. ) ;
#287 = ORIENTED_EDGE ( 'NONE', *, *, #113, .T. ) ;
#288 = DIMENSIONAL_EXPONENTS ( 1.000000000000000000, 0.0000000000000000000, 0.0000000000000000000, 0.0000000000000000000, 0.0000000000000000000, 0.0000000000000000000, 0.0000000000000000000 ) ;
#289 = ORIENTED_EDGE ( 'NONE', *, *, #298, .F. ) ;
#290 = STYLED_ITEM ( 'NONE', ( #79 ), #181 ) ;
#291 = APPLICATION_CONTEXT ( 'automotive_design' ) ;
#292 = VERTEX_POINT ( 'NONE', #156 ) ;
#293 = EDGE_LOOP ( 'NONE', ( #271 ) ) ;
#294 = AXIS2_PLACEMENT_3D ( 'NONE', #216, #284, #245 ) ;
#295 = ADVANCED_FACE ( 'NONE', ( #307, #143 ), #50, .T. ) ;
#296 = DIRECTION ( 'NONE',  ( -0.8660254037844385966, -0.5000000000000003331, 0.0000000000000000000 ) ) ;
#297 = DIRECTION ( 'NONE',  ( 1.000000000000000000, 1.182924880895401264E-16, 0.0000000000000000000 ) ) ;
#298 = EDGE_CURVE ( 'NONE', #15, #127, #185, .T. ) ;
#299 = UNCERTAINTY_MEASURE_WITH_UNIT (LENGTH_MEASURE( 1.000000000000000082E-05 ), #194, 'distance_accuracy_value', 'NONE');
#300 = PLANE ( 'NONE',  #225 ) ;
#301 = CARTESIAN_POINT ( 'NONE',  ( 0.1443375672974063217, 0.2500000000000000555, 0.0000000000000000000 ) ) ;
#302 = DIRECTION ( 'NONE',  ( 0.0000000000000000000, 0.0000000000000000000, 1.000000000000000000 ) ) ;
#303 = EDGE_CURVE ( 'NONE', #273, #15, #88, .T. ) ;
#304 = CARTESIAN_POINT ( 'NONE',  ( 0.1443375672974065438, -0.2499999999999999167, 0.06250000000000000000 ) ) ;
#305 = AXIS2_PLACEMENT_3D ( 'NONE', #17, #25, #241 ) ;
#306 = CARTESIAN_POINT ( 'NONE',  ( 0.1443375672974065438, -0.2499999999999999167, 0.06250000000000000000 ) ) ;
#307 = FACE_OUTER_BOUND ( 'NONE', #96, .T. ) ;
#308 = EDGE_LOOP ( 'NONE', ( #276, #270, #285, #282 ) ) ;
#309 = SURFACE_SIDE_STYLE ('',( #4 ) ) ;
#310 = CARTESIAN_POINT ( 'NONE',  ( 0.1443375672974063217, 0.2500000000000000555, 0.06250000000000000000 ) ) ;
#311 = DIRECTION ( 'NONE',  ( -0.0000000000000000000, -0.0000000000000000000, -1.000000000000000000 ) ) ;
ENDSEC;
END-ISO-10303-21;
