ISO-10303-21;
HEADER;
FILE_DESCRIPTION (( 'STEP AP214' ),
    '1' );
FILE_NAME ('am-3947-188 375H x 188IN Spacer.STEP',
    '2018-12-03T20:00:29',
    ( '' ),
    ( '' ),
    'SwSTEP 2.0',
    'SolidWorks 2018',
    '' );
FILE_SCHEMA (( 'AUTOMOTIVE_DESIGN' ));
ENDSEC;

DATA;
#1 = ORIENTED_EDGE ( 'NONE', *, *, #31, .T. ) ;
#2 = VERTEX_POINT ( 'NONE', #306 ) ;
#3 = VERTEX_POINT ( 'NONE', #230 ) ;
#4 = AXIS2_PLACEMENT_3D ( 'NONE', #259, #69, #229 ) ;
#5 = VECTOR ( 'NONE', #114, 39.37007874015748143 ) ;
#6 = CARTESIAN_POINT ( 'NONE',  ( 0.0000000000000000000, 0.0000000000000000000, 0.0000000000000000000 ) ) ;
#7 = DIRECTION ( 'NONE',  ( -0.0000000000000000000, -0.0000000000000000000, -1.000000000000000000 ) ) ;
#8 = DIMENSIONAL_EXPONENTS ( 1.000000000000000000, 0.0000000000000000000, 0.0000000000000000000, 0.0000000000000000000, 0.0000000000000000000, 0.0000000000000000000, 0.0000000000000000000 ) ;
#9 = SURFACE_STYLE_FILL_AREA ( #322 ) ;
#10 = ORIENTED_EDGE ( 'NONE', *, *, #187, .T. ) ;
#11 = EDGE_LOOP ( 'NONE', ( #289, #95 ) ) ;
#12 = DIRECTION ( 'NONE',  ( -0.8660254037844387076, 0.5000000000000001110, 0.0000000000000000000 ) ) ;
#13 = CARTESIAN_POINT ( 'NONE',  ( 0.3937007874015748254, 4.821444091131312140E-17, 0.0000000000000000000 ) ) ;
#14 = CARTESIAN_POINT ( 'NONE',  ( 0.1082531754730549634, -0.1874999999999999167, 0.1880000000000000282 ) ) ;
#15 = EDGE_LOOP ( 'NONE', ( #163, #327, #349, #10 ) ) ;
#16 = DIRECTION ( 'NONE',  ( -0.0000000000000000000, -0.0000000000000000000, -1.000000000000000000 ) ) ;
#17 = FACE_OUTER_BOUND ( 'NONE', #145, .T. ) ;
#18 = ADVANCED_FACE ( 'NONE', ( #271, #27 ), #286, .F. ) ;
#19 = ORIENTED_EDGE ( 'NONE', *, *, #187, .F. ) ;
#20 = CARTESIAN_POINT ( 'NONE',  ( 0.2165063509461097047, -7.084637897906329745E-17, 0.1880000000000000282 ) ) ;
#21 = CARTESIAN_POINT ( 'NONE',  ( 0.1082531754730549634, -0.1874999999999999167, 0.1880000000000000282 ) ) ;
#22 = SURFACE_STYLE_USAGE ( .BOTH. , #185 ) ;
#23 = AXIS2_PLACEMENT_3D ( 'NONE', #6, #193, #34 ) ;
#24 = CARTESIAN_POINT ( 'NONE',  ( -0.1082531754730547829, -0.1874999999999999722, 0.1880000000000000282 ) ) ;
#25 = FACE_OUTER_BOUND ( 'NONE', #176, .T. ) ;
#26 = ORIENTED_EDGE ( 'NONE', *, *, #160, .T. ) ;
#27 = FACE_BOUND ( 'NONE', #153, .T. ) ;
#28 =( LENGTH_UNIT ( ) NAMED_UNIT ( * ) SI_UNIT ( $, .METRE. ) );
#29 = VECTOR ( 'NONE', #42, 39.37007874015748143 ) ;
#30 =( CONVERSION_BASED_UNIT ( 'INCH', #191 ) LENGTH_UNIT ( ) NAMED_UNIT ( #8 ) );
#31 = EDGE_CURVE ( 'NONE', #252, #162, #139, .T. ) ;
#32 = ORIENTED_EDGE ( 'NONE', *, *, #160, .F. ) ;
#33 = EDGE_CURVE ( 'NONE', #253, #2, #175, .T. ) ;
#34 = DIRECTION ( 'NONE',  ( 1.000000000000000000, 0.0000000000000000000, 0.0000000000000000000 ) ) ;
#35 = LENGTH_MEASURE_WITH_UNIT ( LENGTH_MEASURE( 0.02539999999999999897 ), #214 );
#36 = PLANE ( 'NONE',  #148 ) ;
#37 = EDGE_LOOP ( 'NONE', ( #213, #156, #204, #345 ) ) ;
#38 = DIRECTION ( 'NONE',  ( -0.0000000000000000000, -0.0000000000000000000, -1.000000000000000000 ) ) ;
#39 = CARTESIAN_POINT ( 'NONE',  ( -0.2165063509461097047, 3.211045840221350913E-17, 0.1880000000000000282 ) ) ;
#40 = CIRCLE ( 'NONE', #23, 0.3937007874015748254 ) ;
#41 = DIRECTION ( 'NONE',  ( -0.0000000000000000000, -0.0000000000000000000, -1.000000000000000000 ) ) ;
#42 = DIRECTION ( 'NONE',  ( -0.0000000000000000000, -0.0000000000000000000, -1.000000000000000000 ) ) ;
#43 = CARTESIAN_POINT ( 'NONE',  ( 0.0000000000000000000, 0.0000000000000000000, 0.1880000000000000282 ) ) ;
#44 = VECTOR ( 'NONE', #48, 39.37007874015748143 ) ;
#45 = VERTEX_POINT ( 'NONE', #73 ) ;
#46 = CARTESIAN_POINT ( 'NONE',  ( 0.1082531754730549634, -0.1874999999999999167, 0.1880000000000000282 ) ) ;
#47 = PRODUCT_DEFINITION_SHAPE ( 'NONE', 'NONE',  #215 ) ;
#48 = DIRECTION ( 'NONE',  ( -0.5000000000000001110, 0.8660254037844385966, 0.0000000000000000000 ) ) ;
#49 = DIRECTION ( 'NONE',  ( 0.0000000000000000000, 0.0000000000000000000, 1.000000000000000000 ) ) ;
#50 =( CONVERSION_BASED_UNIT ( 'INCH', #35 ) LENGTH_UNIT ( ) NAMED_UNIT ( #122 ) );
#51 = LINE ( 'NONE', #266, #111 ) ;
#52 = ADVANCED_FACE ( 'NONE', ( #68 ), #117, .T. ) ;
#53 =( NAMED_UNIT ( * ) PLANE_ANGLE_UNIT ( ) SI_UNIT ( $, .RADIAN. ) );
#54 = MECHANICAL_DESIGN_GEOMETRIC_PRESENTATION_REPRESENTATION (  '', ( #123 ), #78 ) ;
#55 =( NAMED_UNIT ( * ) SI_UNIT ( $, .STERADIAN. ) SOLID_ANGLE_UNIT ( ) );
#56 = VECTOR ( 'NONE', #38, 39.37007874015748143 ) ;
#57 = ORIENTED_EDGE ( 'NONE', *, *, #121, .F. ) ;
#58 = VECTOR ( 'NONE', #308, 39.37007874015748143 ) ;
#59 = LINE ( 'NONE', #206, #100 ) ;
#60 = CARTESIAN_POINT ( 'NONE',  ( 0.1082531754730547829, 0.1875000000000000555, 0.1880000000000000282 ) ) ;
#61 = EDGE_CURVE ( 'NONE', #300, #45, #219, .T. ) ;
#62 = DIRECTION ( 'NONE',  ( 0.5000000000000000000, -0.8660254037844385966, 0.0000000000000000000 ) ) ;
#63 = CARTESIAN_POINT ( 'NONE',  ( -0.1082531754730547829, -0.1874999999999999722, 0.0000000000000000000 ) ) ;
#64 = EDGE_CURVE ( 'NONE', #255, #75, #59, .T. ) ;
#65 = ADVANCED_FACE ( 'NONE', ( #309 ), #197, .T. ) ;
#66 = DIRECTION ( 'NONE',  ( 0.0000000000000000000, -1.000000000000000000, 0.0000000000000000000 ) ) ;
#67 = ORIENTED_EDGE ( 'NONE', *, *, #182, .F. ) ;
#68 = FACE_OUTER_BOUND ( 'NONE', #228, .T. ) ;
#69 = DIRECTION ( 'NONE',  ( -0.0000000000000000000, -0.0000000000000000000, -1.000000000000000000 ) ) ;
#70 = CARTESIAN_POINT ( 'NONE',  ( 0.0000000000000000000, 0.0000000000000000000, 0.0000000000000000000 ) ) ;
#71 = EDGE_CURVE ( 'NONE', #118, #319, #247, .T. ) ;
#72 = LINE ( 'NONE', #60, #161 ) ;
#73 = CARTESIAN_POINT ( 'NONE',  ( -0.3937007874015748254, 0.0000000000000000000, 0.1880000000000000282 ) ) ;
#74 = CARTESIAN_POINT ( 'NONE',  ( 0.0000000000000000000, 0.0000000000000000000, 0.1880000000000000282 ) ) ;
#75 = VERTEX_POINT ( 'NONE', #63 ) ;
#76 = DIRECTION ( 'NONE',  ( -3.154466349054401728E-16, 1.000000000000000000, 0.0000000000000000000 ) ) ;
#77 =( NAMED_UNIT ( * ) SI_UNIT ( $, .STERADIAN. ) SOLID_ANGLE_UNIT ( ) );
#78 =( GEOMETRIC_REPRESENTATION_CONTEXT ( 3 ) GLOBAL_UNCERTAINTY_ASSIGNED_CONTEXT ( ( #178 ) ) GLOBAL_UNIT_ASSIGNED_CONTEXT ( ( #50, #237, #77 ) ) REPRESENTATION_CONTEXT ( 'NONE', 'WORKASPACE' ) );
#79 = CARTESIAN_POINT ( 'NONE',  ( -0.1082531754730548107, 0.1875000000000000555, 0.0000000000000000000 ) ) ;
#80 = FACE_OUTER_BOUND ( 'NONE', #170, .T. ) ;
#81 = AXIS2_PLACEMENT_3D ( 'NONE', #126, #347, #186 ) ;
#82 = VECTOR ( 'NONE', #293, 39.37007874015749564 ) ;
#83 = DIRECTION ( 'NONE',  ( 0.0000000000000000000, 0.0000000000000000000, 1.000000000000000000 ) ) ;
#84 = COLOUR_RGB ( '',0.2509803921568627416, 0.2509803921568627416, 0.2509803921568627416 ) ;
#85 = ORIENTED_EDGE ( 'NONE', *, *, #233, .T. ) ;
#86 = CARTESIAN_POINT ( 'NONE',  ( -0.2165063509461097047, 3.211045840221350913E-17, 0.1880000000000000282 ) ) ;
#87 = PLANE ( 'NONE',  #326 ) ;
#88 = LINE ( 'NONE', #258, #158 ) ;
#89 = EDGE_LOOP ( 'NONE', ( #338, #194, #142, #224, #275, #32 ) ) ;
#90 = VECTOR ( 'NONE', #7, 39.37007874015748143 ) ;
#91 = DIRECTION ( 'NONE',  ( 0.0000000000000000000, -0.0000000000000000000, -1.000000000000000000 ) ) ;
#92 = LINE ( 'NONE', #103, #250 ) ;
#93 = SURFACE_STYLE_FILL_AREA ( #346 ) ;
#94 = LINE ( 'NONE', #86, #90 ) ;
#95 = ORIENTED_EDGE ( 'NONE', *, *, #61, .T. ) ;
#96 = PLANE ( 'NONE',  #165 ) ;
#97 = CARTESIAN_POINT ( 'NONE',  ( 0.1082531754730547829, 0.1875000000000000555, 0.1880000000000000282 ) ) ;
#98 = LINE ( 'NONE', #14, #274 ) ;
#99 = DIRECTION ( 'NONE',  ( 0.8660254037844384856, 0.5000000000000004441, -0.0000000000000000000 ) ) ;
#100 = VECTOR ( 'NONE', #16, 39.37007874015748143 ) ;
#101 = CARTESIAN_POINT ( 'NONE',  ( 0.2165063509461097047, -7.084637897906329745E-17, 0.1880000000000000282 ) ) ;
#102 = AXIS2_PLACEMENT_3D ( 'NONE', #74, #231, #307 ) ;
#103 = CARTESIAN_POINT ( 'NONE',  ( -0.1082531754730548107, 0.1875000000000000555, 0.1880000000000000282 ) ) ;
#104 = DIRECTION ( 'NONE',  ( 1.000000000000000000, 3.154466349054401728E-16, 0.0000000000000000000 ) ) ;
#105 = SHAPE_DEFINITION_REPRESENTATION ( #47, #203 ) ;
#106 = LINE ( 'NONE', #171, #257 ) ;
#107 = APPLICATION_PROTOCOL_DEFINITION ( 'draft international standard', 'automotive_design', 1998, #267 ) ;
#108 = AXIS2_PLACEMENT_3D ( 'NONE', #152, #76, #263 ) ;
#109 = VECTOR ( 'NONE', #115, 39.37007874015748854 ) ;
#110 = ORIENTED_EDGE ( 'NONE', *, *, #151, .F. ) ;
#111 = VECTOR ( 'NONE', #130, 39.37007874015748143 ) ;
#112 = CARTESIAN_POINT ( 'NONE',  ( 0.2165063509461097047, -7.084637897906329745E-17, 0.0000000000000000000 ) ) ;
#113 = ORIENTED_EDGE ( 'NONE', *, *, #212, .T. ) ;
#114 = DIRECTION ( 'NONE',  ( 0.5000000000000003331, -0.8660254037844383745, 0.0000000000000000000 ) ) ;
#115 = DIRECTION ( 'NONE',  ( 0.5000000000000000000, 0.8660254037844385966, 0.0000000000000000000 ) ) ;
#116 = EDGE_CURVE ( 'NONE', #270, #252, #209, .T. ) ;
#117 = CYLINDRICAL_SURFACE ( 'NONE', #138, 0.3937007874015748254 ) ;
#118 = VERTEX_POINT ( 'NONE', #97 ) ;
#119 = ADVANCED_FACE ( 'NONE', ( #25 ), #120, .T. ) ;
#120 = PLANE ( 'NONE',  #298 ) ;
#121 = EDGE_CURVE ( 'NONE', #162, #319, #240, .T. ) ;
#122 = DIMENSIONAL_EXPONENTS ( 1.000000000000000000, 0.0000000000000000000, 0.0000000000000000000, 0.0000000000000000000, 0.0000000000000000000, 0.0000000000000000000, 0.0000000000000000000 ) ;
#123 = STYLED_ITEM ( 'NONE', ( #199 ), #292 ) ;
#124 = DIRECTION ( 'NONE',  ( -0.0000000000000000000, -0.0000000000000000000, -1.000000000000000000 ) ) ;
#125 = CARTESIAN_POINT ( 'NONE',  ( -0.1082531754730548107, 0.1875000000000000555, 0.1880000000000000282 ) ) ;
#126 = CARTESIAN_POINT ( 'NONE',  ( 0.0000000000000000000, 0.0000000000000000000, 0.1880000000000000282 ) ) ;
#127 = FACE_OUTER_BOUND ( 'NONE', #11, .T. ) ;
#128 = ORIENTED_EDGE ( 'NONE', *, *, #64, .T. ) ;
#129 = PLANE ( 'NONE',  #81 ) ;
#130 = DIRECTION ( 'NONE',  ( 1.000000000000000000, 3.154466349054401728E-16, 0.0000000000000000000 ) ) ;
#131 = FILL_AREA_STYLE_COLOUR ( '', #84 ) ;
#132 = EDGE_CURVE ( 'NONE', #319, #2, #106, .T. ) ;
#133 = ORIENTED_EDGE ( 'NONE', *, *, #136, .F. ) ;
#134 = APPLICATION_CONTEXT ( 'automotive_design' ) ;
#135 = ORIENTED_EDGE ( 'NONE', *, *, #132, .T. ) ;
#136 = EDGE_CURVE ( 'NONE', #232, #3, #40, .T. ) ;
#137 = ORIENTED_EDGE ( 'NONE', *, *, #121, .T. ) ;
#138 = AXIS2_PLACEMENT_3D ( 'NONE', #43, #150, #174 ) ;
#139 = LINE ( 'NONE', #342, #58 ) ;
#140 = EDGE_CURVE ( 'NONE', #244, #255, #281, .T. ) ;
#141 = ORIENTED_EDGE ( 'NONE', *, *, #168, .F. ) ;
#142 = ORIENTED_EDGE ( 'NONE', *, *, #305, .F. ) ;
#143 = LINE ( 'NONE', #20, #44 ) ;
#144 = ORIENTED_EDGE ( 'NONE', *, *, #140, .T. ) ;
#145 = EDGE_LOOP ( 'NONE', ( #325, #243, #113, #157 ) ) ;
#146 = LINE ( 'NONE', #79, #82 ) ;
#147 = DIRECTION ( 'NONE',  ( 0.8660254037844385966, -0.5000000000000003331, 0.0000000000000000000 ) ) ;
#148 = AXIS2_PLACEMENT_3D ( 'NONE', #333, #221, #62 ) ;
#149 = CARTESIAN_POINT ( 'NONE',  ( 0.0000000000000000000, 0.0000000000000000000, 0.0000000000000000000 ) ) ;
#150 = DIRECTION ( 'NONE',  ( -0.0000000000000000000, -0.0000000000000000000, -1.000000000000000000 ) ) ;
#151 = EDGE_CURVE ( 'NONE', #332, #75, #282, .T. ) ;
#152 = CARTESIAN_POINT ( 'NONE',  ( -0.1082531754730547829, -0.1874999999999999722, 0.1880000000000000282 ) ) ;
#153 = EDGE_LOOP ( 'NONE', ( #217, #137, #135, #280, #288, #341 ) ) ;
#154 = FACE_OUTER_BOUND ( 'NONE', #37, .T. ) ;
#155 = VECTOR ( 'NONE', #277, 39.37007874015748143 ) ;
#156 = ORIENTED_EDGE ( 'NONE', *, *, #33, .F. ) ;
#157 = ORIENTED_EDGE ( 'NONE', *, *, #182, .T. ) ;
#158 = VECTOR ( 'NONE', #256, 39.37007874015748854 ) ;
#159 = SURFACE_SIDE_STYLE ('',( #9 ) ) ;
#160 = EDGE_CURVE ( 'NONE', #118, #253, #72, .T. ) ;
#161 = VECTOR ( 'NONE', #251, 39.37007874015748143 ) ;
#162 = VERTEX_POINT ( 'NONE', #112 ) ;
#163 = ORIENTED_EDGE ( 'NONE', *, *, #351, .F. ) ;
#164 = LINE ( 'NONE', #235, #316 ) ;
#165 = AXIS2_PLACEMENT_3D ( 'NONE', #39, #99, #287 ) ;
#166 = VECTOR ( 'NONE', #169, 39.37007874015748143 ) ;
#167 = FACE_OUTER_BOUND ( 'NONE', #198, .T. ) ;
#168 = EDGE_CURVE ( 'NONE', #244, #332, #94, .T. ) ;
#169 = DIRECTION ( 'NONE',  ( 0.5000000000000003331, -0.8660254037844383745, 0.0000000000000000000 ) ) ;
#170 = EDGE_LOOP ( 'NONE', ( #57, #227, #85, #211 ) ) ;
#171 = CARTESIAN_POINT ( 'NONE',  ( 0.1082531754730547829, 0.1875000000000000555, 0.0000000000000000000 ) ) ;
#172 = DIRECTION ( 'NONE',  ( -0.5000000000000000000, -0.8660254037844385966, 0.0000000000000000000 ) ) ;
#173 = ADVANCED_FACE ( 'NONE', ( #80 ), #36, .T. ) ;
#174 = DIRECTION ( 'NONE',  ( -1.000000000000000000, 0.0000000000000000000, 0.0000000000000000000 ) ) ;
#175 = LINE ( 'NONE', #337, #29 ) ;
#176 = EDGE_LOOP ( 'NONE', ( #260, #195, #26, #180 ) ) ;
#177 = DIRECTION ( 'NONE',  ( 0.5000000000000002220, 0.8660254037844384856, 0.0000000000000000000 ) ) ;
#178 = UNCERTAINTY_MEASURE_WITH_UNIT (LENGTH_MEASURE( 1.000000000000000082E-05 ), #50, 'distance_accuracy_value', 'NONE');
#179 = DIRECTION ( 'NONE',  ( 0.0000000000000000000, 0.0000000000000000000, 1.000000000000000000 ) ) ;
#180 = ORIENTED_EDGE ( 'NONE', *, *, #33, .T. ) ;
#181 = COLOUR_RGB ( '',0.2509803921568627416, 0.2509803921568627416, 0.2509803921568627416 ) ;
#182 = EDGE_CURVE ( 'NONE', #3, #232, #268, .T. ) ;
#183 = DIRECTION ( 'NONE',  ( -0.0000000000000000000, -0.0000000000000000000, -1.000000000000000000 ) ) ;
#184 = ADVANCED_FACE ( 'NONE', ( #154 ), #87, .T. ) ;
#185 = SURFACE_SIDE_STYLE ('',( #93 ) ) ;
#186 = DIRECTION ( 'NONE',  ( 1.000000000000000000, 0.0000000000000000000, -0.0000000000000000000 ) ) ;
#187 = EDGE_CURVE ( 'NONE', #270, #273, #98, .T. ) ;
#188 = ADVANCED_FACE ( 'NONE', ( #17 ), #299, .T. ) ;
#189 = CARTESIAN_POINT ( 'NONE',  ( 0.0000000000000000000, 0.0000000000000000000, 0.0000000000000000000 ) ) ;
#190 =( LENGTH_UNIT ( ) NAMED_UNIT ( * ) SI_UNIT ( $, .METRE. ) );
#191 = LENGTH_MEASURE_WITH_UNIT ( LENGTH_MEASURE( 0.02539999999999999897 ), #190 );
#192 = PRESENTATION_LAYER_ASSIGNMENT (  '', '', ( #324 ) ) ;
#193 = DIRECTION ( 'NONE',  ( 0.0000000000000000000, 0.0000000000000000000, 1.000000000000000000 ) ) ;
#194 = ORIENTED_EDGE ( 'NONE', *, *, #116, .F. ) ;
#195 = ORIENTED_EDGE ( 'NONE', *, *, #71, .F. ) ;
#196 = EDGE_CURVE ( 'NONE', #273, #162, #88, .T. ) ;
#197 = PLANE ( 'NONE',  #283 ) ;
#198 = EDGE_LOOP ( 'NONE', ( #110, #141, #144, #128 ) ) ;
#199 = PRESENTATION_STYLE_ASSIGNMENT (( #22 ) ) ;
#200 = DIRECTION ( 'NONE',  ( 0.0000000000000000000, 0.0000000000000000000, 1.000000000000000000 ) ) ;
#201 = PRESENTATION_LAYER_ASSIGNMENT (  '', '', ( #123 ) ) ;
#202 = DIRECTION ( 'NONE',  ( 1.000000000000000000, 0.0000000000000000000, -0.0000000000000000000 ) ) ;
#203 = ADVANCED_BREP_SHAPE_REPRESENTATION ( 'am-3947-188 375H x 188IN Spacer', ( #292, #278 ), #225 ) ;
#204 = ORIENTED_EDGE ( 'NONE', *, *, #294, .T. ) ;
#205 = ADVANCED_FACE ( 'NONE', ( #167 ), #96, .T. ) ;
#206 = CARTESIAN_POINT ( 'NONE',  ( -0.1082531754730547829, -0.1874999999999999722, 0.1880000000000000282 ) ) ;
#207 = CARTESIAN_POINT ( 'NONE',  ( -0.1082531754730547829, -0.1874999999999999722, 0.1880000000000000282 ) ) ;
#208 = ORIENTED_EDGE ( 'NONE', *, *, #196, .F. ) ;
#209 = LINE ( 'NONE', #279, #109 ) ;
#210 = CARTESIAN_POINT ( 'NONE',  ( 0.0000000000000000000, 0.0000000000000000000, 0.1880000000000000282 ) ) ;
#211 = ORIENTED_EDGE ( 'NONE', *, *, #71, .T. ) ;
#212 = EDGE_CURVE ( 'NONE', #45, #3, #328, .T. ) ;
#213 = ORIENTED_EDGE ( 'NONE', *, *, #321, .F. ) ;
#214 =( LENGTH_UNIT ( ) NAMED_UNIT ( * ) SI_UNIT ( $, .METRE. ) );
#215 = PRODUCT_DEFINITION ( 'UNKNOWN', '', #226, #245 ) ;
#216 =( CONVERSION_BASED_UNIT ( 'INCH', #336 ) LENGTH_UNIT ( ) NAMED_UNIT ( #261 ) );
#217 = ORIENTED_EDGE ( 'NONE', *, *, #196, .T. ) ;
#218 =( NAMED_UNIT ( * ) PLANE_ANGLE_UNIT ( ) SI_UNIT ( $, .RADIAN. ) );
#219 = CIRCLE ( 'NONE', #102, 0.3937007874015748254 ) ;
#220 = CARTESIAN_POINT ( 'NONE',  ( -0.2165063509461097047, 3.211045840221350913E-17, 0.0000000000000000000 ) ) ;
#221 = DIRECTION ( 'NONE',  ( -0.8660254037844387076, -0.5000000000000001110, 0.0000000000000000000 ) ) ;
#222 = FACE_BOUND ( 'NONE', #89, .T. ) ;
#223 = DIRECTION ( 'NONE',  ( -1.000000000000000000, 0.0000000000000000000, 0.0000000000000000000 ) ) ;
#224 = ORIENTED_EDGE ( 'NONE', *, *, #140, .F. ) ;
#225 =( GEOMETRIC_REPRESENTATION_CONTEXT ( 3 ) GLOBAL_UNCERTAINTY_ASSIGNED_CONTEXT ( ( #276 ) ) GLOBAL_UNIT_ASSIGNED_CONTEXT ( ( #216, #53, #241 ) ) REPRESENTATION_CONTEXT ( 'NONE', 'WORKASPACE' ) );
#226 = PRODUCT_DEFINITION_FORMATION_WITH_SPECIFIED_SOURCE ( 'ANY', '', #340, .NOT_KNOWN. ) ;
#227 = ORIENTED_EDGE ( 'NONE', *, *, #31, .F. ) ;
#228 = EDGE_LOOP ( 'NONE', ( #296, #344, #304, #239 ) ) ;
#229 = DIRECTION ( 'NONE',  ( -1.000000000000000000, 0.0000000000000000000, 0.0000000000000000000 ) ) ;
#230 = CARTESIAN_POINT ( 'NONE',  ( -0.3937007874015748254, 0.0000000000000000000, 0.0000000000000000000 ) ) ;
#231 = DIRECTION ( 'NONE',  ( 0.0000000000000000000, 0.0000000000000000000, 1.000000000000000000 ) ) ;
#232 = VERTEX_POINT ( 'NONE', #13 ) ;
#233 = EDGE_CURVE ( 'NONE', #252, #118, #143, .T. ) ;
#234 = EDGE_LOOP ( 'NONE', ( #67, #133 ) ) ;
#235 = CARTESIAN_POINT ( 'NONE',  ( 0.3937007874015748254, 4.821444091131312140E-17, 0.1880000000000000282 ) ) ;
#236 = DIRECTION ( 'NONE',  ( 1.000000000000000000, 0.0000000000000000000, 0.0000000000000000000 ) ) ;
#237 =( NAMED_UNIT ( * ) PLANE_ANGLE_UNIT ( ) SI_UNIT ( $, .RADIAN. ) );
#238 = CLOSED_SHELL ( 'NONE', ( #52, #303, #18, #188, #65, #173, #119, #184, #205, #265 ) ) ;
#239 = ORIENTED_EDGE ( 'NONE', *, *, #212, .F. ) ;
#240 = LINE ( 'NONE', #334, #155 ) ;
#241 =( NAMED_UNIT ( * ) SI_UNIT ( $, .STERADIAN. ) SOLID_ANGLE_UNIT ( ) );
#242 = EDGE_CURVE ( 'NONE', #300, #232, #164, .T. ) ;
#243 = ORIENTED_EDGE ( 'NONE', *, *, #264, .F. ) ;
#244 = VERTEX_POINT ( 'NONE', #262 ) ;
#245 = PRODUCT_DEFINITION_CONTEXT ( 'detailed design', #134, 'design' ) ;
#246 = AXIS2_PLACEMENT_3D ( 'NONE', #210, #49, #236 ) ;
#247 = LINE ( 'NONE', #335, #56 ) ;
#248 = ORIENTED_EDGE ( 'NONE', *, *, #116, .T. ) ;
#249 = VECTOR ( 'NONE', #124, 39.37007874015748143 ) ;
#250 = VECTOR ( 'NONE', #291, 39.37007874015749564 ) ;
#251 = DIRECTION ( 'NONE',  ( -1.000000000000000000, 0.0000000000000000000, 0.0000000000000000000 ) ) ;
#252 = VERTEX_POINT ( 'NONE', #101 ) ;
#253 = VERTEX_POINT ( 'NONE', #125 ) ;
#254 = DIRECTION ( 'NONE',  ( 1.000000000000000000, 0.0000000000000000000, 0.0000000000000000000 ) ) ;
#255 = VERTEX_POINT ( 'NONE', #207 ) ;
#256 = DIRECTION ( 'NONE',  ( 0.5000000000000000000, 0.8660254037844385966, 0.0000000000000000000 ) ) ;
#257 = VECTOR ( 'NONE', #223, 39.37007874015748143 ) ;
#258 = CARTESIAN_POINT ( 'NONE',  ( 0.1082531754730549634, -0.1874999999999999167, 0.0000000000000000000 ) ) ;
#259 = CARTESIAN_POINT ( 'NONE',  ( 0.0000000000000000000, 0.0000000000000000000, 0.1880000000000000282 ) ) ;
#260 = ORIENTED_EDGE ( 'NONE', *, *, #132, .F. ) ;
#261 = DIMENSIONAL_EXPONENTS ( 1.000000000000000000, 0.0000000000000000000, 0.0000000000000000000, 0.0000000000000000000, 0.0000000000000000000, 0.0000000000000000000, 0.0000000000000000000 ) ;
#262 = CARTESIAN_POINT ( 'NONE',  ( -0.2165063509461097047, 3.211045840221350913E-17, 0.1880000000000000282 ) ) ;
#263 = DIRECTION ( 'NONE',  ( -1.000000000000000000, -3.154466349054401728E-16, 0.0000000000000000000 ) ) ;
#264 = EDGE_CURVE ( 'NONE', #45, #300, #329, .T. ) ;
#265 = ADVANCED_FACE ( 'NONE', ( #317 ), #343, .T. ) ;
#266 = CARTESIAN_POINT ( 'NONE',  ( -0.1082531754730547829, -0.1874999999999999722, 0.0000000000000000000 ) ) ;
#267 = APPLICATION_CONTEXT ( 'automotive_design' ) ;
#268 = CIRCLE ( 'NONE', #348, 0.3937007874015748254 ) ;
#269 = DIRECTION ( 'NONE',  ( 1.000000000000000000, 0.0000000000000000000, 0.0000000000000000000 ) ) ;
#270 = VERTEX_POINT ( 'NONE', #21 ) ;
#271 = FACE_OUTER_BOUND ( 'NONE', #234, .T. ) ;
#272 = UNCERTAINTY_MEASURE_WITH_UNIT (LENGTH_MEASURE( 1.000000000000000082E-05 ), #30, 'distance_accuracy_value', 'NONE');
#273 = VERTEX_POINT ( 'NONE', #290 ) ;
#274 = VECTOR ( 'NONE', #41, 39.37007874015748143 ) ;
#275 = ORIENTED_EDGE ( 'NONE', *, *, #294, .F. ) ;
#276 = UNCERTAINTY_MEASURE_WITH_UNIT (LENGTH_MEASURE( 1.000000000000000082E-05 ), #216, 'distance_accuracy_value', 'NONE');
#277 = DIRECTION ( 'NONE',  ( -0.5000000000000001110, 0.8660254037844385966, 0.0000000000000000000 ) ) ;
#278 = AXIS2_PLACEMENT_3D ( 'NONE', #189, #83, #269 ) ;
#279 = CARTESIAN_POINT ( 'NONE',  ( 0.1082531754730549634, -0.1874999999999999167, 0.1880000000000000282 ) ) ;
#280 = ORIENTED_EDGE ( 'NONE', *, *, #321, .T. ) ;
#281 = LINE ( 'NONE', #330, #166 ) ;
#282 = LINE ( 'NONE', #220, #5 ) ;
#283 = AXIS2_PLACEMENT_3D ( 'NONE', #46, #12, #172 ) ;
#284 = CARTESIAN_POINT ( 'NONE',  ( -0.1082531754730548107, 0.1875000000000000555, 0.1880000000000000282 ) ) ;
#285 = CARTESIAN_POINT ( 'NONE',  ( 0.1082531754730547829, 0.1875000000000000555, 0.1880000000000000282 ) ) ;
#286 = PLANE ( 'NONE',  #315 ) ;
#287 = DIRECTION ( 'NONE',  ( -0.5000000000000003331, 0.8660254037844383745, 0.0000000000000000000 ) ) ;
#288 = ORIENTED_EDGE ( 'NONE', *, *, #151, .T. ) ;
#289 = ORIENTED_EDGE ( 'NONE', *, *, #264, .T. ) ;
#290 = CARTESIAN_POINT ( 'NONE',  ( 0.1082531754730549634, -0.1874999999999999167, 0.0000000000000000000 ) ) ;
#291 = DIRECTION ( 'NONE',  ( -0.5000000000000002220, -0.8660254037844384856, 0.0000000000000000000 ) ) ;
#292 = MANIFOLD_SOLID_BREP ( 'Boss-Extrude1', #238 ) ;
#293 = DIRECTION ( 'NONE',  ( -0.5000000000000002220, -0.8660254037844384856, 0.0000000000000000000 ) ) ;
#294 = EDGE_CURVE ( 'NONE', #253, #244, #92, .T. ) ;
#295 = VECTOR ( 'NONE', #104, 39.37007874015748143 ) ;
#296 = ORIENTED_EDGE ( 'NONE', *, *, #61, .F. ) ;
#297 = PRODUCT_CONTEXT ( 'NONE', #267, 'mechanical' ) ;
#298 = AXIS2_PLACEMENT_3D ( 'NONE', #285, #66, #91 ) ;
#299 = CYLINDRICAL_SURFACE ( 'NONE', #4, 0.3937007874015748254 ) ;
#300 = VERTEX_POINT ( 'NONE', #314 ) ;
#301 =( GEOMETRIC_REPRESENTATION_CONTEXT ( 3 ) GLOBAL_UNCERTAINTY_ASSIGNED_CONTEXT ( ( #272 ) ) GLOBAL_UNIT_ASSIGNED_CONTEXT ( ( #30, #218, #55 ) ) REPRESENTATION_CONTEXT ( 'NONE', 'WORKASPACE' ) );
#302 = PRESENTATION_STYLE_ASSIGNMENT (( #350 ) ) ;
#303 = ADVANCED_FACE ( 'NONE', ( #127, #222 ), #129, .T. ) ;
#304 = ORIENTED_EDGE ( 'NONE', *, *, #136, .T. ) ;
#305 = EDGE_CURVE ( 'NONE', #255, #270, #331, .T. ) ;
#306 = CARTESIAN_POINT ( 'NONE',  ( -0.1082531754730548107, 0.1875000000000000555, 0.0000000000000000000 ) ) ;
#307 = DIRECTION ( 'NONE',  ( 1.000000000000000000, 0.0000000000000000000, 0.0000000000000000000 ) ) ;
#308 = DIRECTION ( 'NONE',  ( -0.0000000000000000000, -0.0000000000000000000, -1.000000000000000000 ) ) ;
#309 = FACE_OUTER_BOUND ( 'NONE', #310, .T. ) ;
#310 = EDGE_LOOP ( 'NONE', ( #208, #19, #248, #1 ) ) ;
#311 = CARTESIAN_POINT ( 'NONE',  ( -0.3937007874015748254, 0.0000000000000000000, 0.1880000000000000282 ) ) ;
#312 = PRODUCT_RELATED_PRODUCT_CATEGORY ( 'part', '', ( #340 ) ) ;
#313 = FILL_AREA_STYLE_COLOUR ( '', #181 ) ;
#314 = CARTESIAN_POINT ( 'NONE',  ( 0.3937007874015748254, 4.821444091131312140E-17, 0.1880000000000000282 ) ) ;
#315 = AXIS2_PLACEMENT_3D ( 'NONE', #149, #179, #202 ) ;
#316 = VECTOR ( 'NONE', #183, 39.37007874015748143 ) ;
#317 = FACE_OUTER_BOUND ( 'NONE', #15, .T. ) ;
#318 = CARTESIAN_POINT ( 'NONE',  ( 0.1082531754730547829, 0.1875000000000000555, 0.0000000000000000000 ) ) ;
#319 = VERTEX_POINT ( 'NONE', #318 ) ;
#320 = CARTESIAN_POINT ( 'NONE',  ( -0.2165063509461097047, 3.211045840221350913E-17, 0.0000000000000000000 ) ) ;
#321 = EDGE_CURVE ( 'NONE', #2, #332, #146, .T. ) ;
#322 = FILL_AREA_STYLE ('',( #131 ) ) ;
#323 = APPLICATION_PROTOCOL_DEFINITION ( 'draft international standard', 'automotive_design', 1998, #134 ) ;
#324 = STYLED_ITEM ( 'NONE', ( #302 ), #203 ) ;
#325 = ORIENTED_EDGE ( 'NONE', *, *, #242, .F. ) ;
#326 = AXIS2_PLACEMENT_3D ( 'NONE', #284, #147, #177 ) ;
#327 = ORIENTED_EDGE ( 'NONE', *, *, #64, .F. ) ;
#328 = LINE ( 'NONE', #311, #249 ) ;
#329 = CIRCLE ( 'NONE', #246, 0.3937007874015748254 ) ;
#330 = CARTESIAN_POINT ( 'NONE',  ( -0.2165063509461097047, 3.211045840221350913E-17, 0.1880000000000000282 ) ) ;
#331 = LINE ( 'NONE', #24, #295 ) ;
#332 = VERTEX_POINT ( 'NONE', #320 ) ;
#333 = CARTESIAN_POINT ( 'NONE',  ( 0.2165063509461097047, -7.084637897906329745E-17, 0.1880000000000000282 ) ) ;
#334 = CARTESIAN_POINT ( 'NONE',  ( 0.2165063509461097047, -7.084637897906329745E-17, 0.0000000000000000000 ) ) ;
#335 = CARTESIAN_POINT ( 'NONE',  ( 0.1082531754730547829, 0.1875000000000000555, 0.1880000000000000282 ) ) ;
#336 = LENGTH_MEASURE_WITH_UNIT ( LENGTH_MEASURE( 0.02539999999999999897 ), #28 );
#337 = CARTESIAN_POINT ( 'NONE',  ( -0.1082531754730548107, 0.1875000000000000555, 0.1880000000000000282 ) ) ;
#338 = ORIENTED_EDGE ( 'NONE', *, *, #233, .F. ) ;
#339 = MECHANICAL_DESIGN_GEOMETRIC_PRESENTATION_REPRESENTATION (  '', ( #324 ), #301 ) ;
#340 = PRODUCT ( 'am-3947-188 375H x 188IN Spacer', 'am-3947-188 375H x 188IN Spacer', '', ( #297 ) ) ;
#341 = ORIENTED_EDGE ( 'NONE', *, *, #351, .T. ) ;
#342 = CARTESIAN_POINT ( 'NONE',  ( 0.2165063509461097047, -7.084637897906329745E-17, 0.1880000000000000282 ) ) ;
#343 = PLANE ( 'NONE',  #108 ) ;
#344 = ORIENTED_EDGE ( 'NONE', *, *, #242, .T. ) ;
#345 = ORIENTED_EDGE ( 'NONE', *, *, #168, .T. ) ;
#346 = FILL_AREA_STYLE ('',( #313 ) ) ;
#347 = DIRECTION ( 'NONE',  ( 0.0000000000000000000, 0.0000000000000000000, 1.000000000000000000 ) ) ;
#348 = AXIS2_PLACEMENT_3D ( 'NONE', #70, #200, #254 ) ;
#349 = ORIENTED_EDGE ( 'NONE', *, *, #305, .T. ) ;
#350 = SURFACE_STYLE_USAGE ( .BOTH. , #159 ) ;
#351 = EDGE_CURVE ( 'NONE', #75, #273, #51, .T. ) ;
ENDSEC;
END-ISO-10303-21;
