ISO-10303-21;
HEADER;
FILE_DESCRIPTION (( 'STEP AP214' ),
    '1' );
FILE_NAME ('am-3948-188 500H x 188IN Spacer.STEP',
    '2018-12-03T20:01:31',
    ( '' ),
    ( '' ),
    'SwSTEP 2.0',
    'SolidWorks 2018',
    '' );
FILE_SCHEMA (( 'AUTOMOTIVE_DESIGN' ));
ENDSEC;

DATA;
#1 = LINE ( 'NONE', #250, #142 ) ;
#2 = ORIENTED_EDGE ( 'NONE', *, *, #156, .F. ) ;
#3 = ORIENTED_EDGE ( 'NONE', *, *, #53, .F. ) ;
#4 = DIRECTION ( 'NONE',  ( 0.0000000000000000000, 0.0000000000000000000, 1.000000000000000000 ) ) ;
#5 = ORIENTED_EDGE ( 'NONE', *, *, #223, .F. ) ;
#6 = DIRECTION ( 'NONE',  ( -0.0000000000000000000, -0.0000000000000000000, -1.000000000000000000 ) ) ;
#7 = CARTESIAN_POINT ( 'NONE',  ( 0.3937007874015748254, 4.821444091131312140E-17, 0.1880000000000000282 ) ) ;
#8 = SURFACE_STYLE_FILL_AREA ( #77 ) ;
#9 = FACE_OUTER_BOUND ( 'NONE', #109, .T. ) ;
#10 = ADVANCED_FACE ( 'NONE', ( #30 ), #19, .T. ) ;
#11 = EDGE_CURVE ( 'NONE', #35, #143, #50, .T. ) ;
#12 = DIRECTION ( 'NONE',  ( -0.0000000000000000000, -0.0000000000000000000, -1.000000000000000000 ) ) ;
#13 = FACE_OUTER_BOUND ( 'NONE', #206, .T. ) ;
#14 = CARTESIAN_POINT ( 'NONE',  ( -0.1443375672974063217, -0.2499999999999999722, 0.1880000000000000282 ) ) ;
#15 = CARTESIAN_POINT ( 'NONE',  ( -0.1443375672974064050, 0.2500000000000000555, 0.0000000000000000000 ) ) ;
#16 = AXIS2_PLACEMENT_3D ( 'NONE', #21, #6, #180 ) ;
#17 = CARTESIAN_POINT ( 'NONE',  ( 0.1443375672974065438, -0.2499999999999999167, 0.1880000000000000282 ) ) ;
#18 = EDGE_CURVE ( 'NONE', #143, #56, #255, .T. ) ;
#19 = PLANE ( 'NONE',  #337 ) ;
#20 = VECTOR ( 'NONE', #346, 39.37007874015748143 ) ;
#21 = CARTESIAN_POINT ( 'NONE',  ( 0.0000000000000000000, 0.0000000000000000000, 0.1880000000000000282 ) ) ;
#22 = DIRECTION ( 'NONE',  ( -0.0000000000000000000, -0.0000000000000000000, -1.000000000000000000 ) ) ;
#23 = CARTESIAN_POINT ( 'NONE',  ( 0.0000000000000000000, 0.0000000000000000000, 0.0000000000000000000 ) ) ;
#24 = FACE_OUTER_BOUND ( 'NONE', #261, .T. ) ;
#25 = VECTOR ( 'NONE', #145, 39.37007874015748854 ) ;
#26 =( LENGTH_UNIT ( ) NAMED_UNIT ( * ) SI_UNIT ( $, .METRE. ) );
#27 = APPLICATION_PROTOCOL_DEFINITION ( 'draft international standard', 'automotive_design', 1998, #201 ) ;
#28 = FACE_OUTER_BOUND ( 'NONE', #342, .T. ) ;
#29 =( NAMED_UNIT ( * ) PLANE_ANGLE_UNIT ( ) SI_UNIT ( $, .RADIAN. ) );
#30 = FACE_OUTER_BOUND ( 'NONE', #349, .T. ) ;
#31 = DIRECTION ( 'NONE',  ( -1.000000000000000000, 0.0000000000000000000, 0.0000000000000000000 ) ) ;
#32 = EDGE_CURVE ( 'NONE', #299, #245, #58, .T. ) ;
#33 = LINE ( 'NONE', #167, #25 ) ;
#34 = ORIENTED_EDGE ( 'NONE', *, *, #126, .F. ) ;
#35 = VERTEX_POINT ( 'NONE', #7 ) ;
#36 = DIRECTION ( 'NONE',  ( -0.0000000000000000000, -0.0000000000000000000, -1.000000000000000000 ) ) ;
#37 = AXIS2_PLACEMENT_3D ( 'NONE', #83, #282, #249 ) ;
#38 = ORIENTED_EDGE ( 'NONE', *, *, #18, .F. ) ;
#39 = ORIENTED_EDGE ( 'NONE', *, *, #223, .T. ) ;
#40 = DIRECTION ( 'NONE',  ( -0.5000000000000002220, 0.8660254037844384856, 0.0000000000000000000 ) ) ;
#41 = ADVANCED_FACE ( 'NONE', ( #24 ), #341, .T. ) ;
#42 = ORIENTED_EDGE ( 'NONE', *, *, #91, .T. ) ;
#43 = ORIENTED_EDGE ( 'NONE', *, *, #287, .F. ) ;
#44 = CARTESIAN_POINT ( 'NONE',  ( 0.3937007874015748254, 4.821444091131312140E-17, 0.1880000000000000282 ) ) ;
#45 = DIRECTION ( 'NONE',  ( 1.000000000000000000, 1.182924880895401264E-16, 0.0000000000000000000 ) ) ;
#46 = CARTESIAN_POINT ( 'NONE',  ( -0.2886751345948128655, 6.809993419335529712E-17, 0.1880000000000000282 ) ) ;
#47 = DIRECTION ( 'NONE',  ( 1.000000000000000000, 0.0000000000000000000, -0.0000000000000000000 ) ) ;
#48 = CARTESIAN_POINT ( 'NONE',  ( 0.1443375672974065438, -0.2499999999999999167, 0.0000000000000000000 ) ) ;
#49 = DIRECTION ( 'NONE',  ( -1.000000000000000000, 0.0000000000000000000, 0.0000000000000000000 ) ) ;
#50 = LINE ( 'NONE', #44, #181 ) ;
#51 = CARTESIAN_POINT ( 'NONE',  ( 0.2886751345948129210, -3.392667169346791278E-17, 0.1880000000000000282 ) ) ;
#52 = ORIENTED_EDGE ( 'NONE', *, *, #53, .T. ) ;
#53 = EDGE_CURVE ( 'NONE', #75, #299, #248, .T. ) ;
#54 =( CONVERSION_BASED_UNIT ( 'INCH', #226 ) LENGTH_UNIT ( ) NAMED_UNIT ( #63 ) );
#55 = CARTESIAN_POINT ( 'NONE',  ( -0.1443375672974064050, 0.2500000000000000555, 0.1880000000000000282 ) ) ;
#56 = VERTEX_POINT ( 'NONE', #277 ) ;
#57 = VECTOR ( 'NONE', #157, 39.37007874015748854 ) ;
#58 = LINE ( 'NONE', #202, #176 ) ;
#59 =( CONVERSION_BASED_UNIT ( 'INCH', #169 ) LENGTH_UNIT ( ) NAMED_UNIT ( #317 ) );
#60 = AXIS2_PLACEMENT_3D ( 'NONE', #115, #311, #331 ) ;
#61 = AXIS2_PLACEMENT_3D ( 'NONE', #98, #221, #74 ) ;
#62 = EDGE_LOOP ( 'NONE', ( #3, #34, #78, #67, #330, #123 ) ) ;
#63 = DIMENSIONAL_EXPONENTS ( 1.000000000000000000, 0.0000000000000000000, 0.0000000000000000000, 0.0000000000000000000, 0.0000000000000000000, 0.0000000000000000000, 0.0000000000000000000 ) ;
#64 = EDGE_LOOP ( 'NONE', ( #254, #185, #122, #39 ) ) ;
#65 = DIRECTION ( 'NONE',  ( 0.0000000000000000000, -1.000000000000000000, 0.0000000000000000000 ) ) ;
#66 = ORIENTED_EDGE ( 'NONE', *, *, #287, .T. ) ;
#67 = ORIENTED_EDGE ( 'NONE', *, *, #146, .F. ) ;
#68 = VECTOR ( 'NONE', #266, 39.37007874015749564 ) ;
#69 = SURFACE_SIDE_STYLE ('',( #289 ) ) ;
#70 = CIRCLE ( 'NONE', #267, 0.3937007874015748254 ) ;
#71 = CARTESIAN_POINT ( 'NONE',  ( -0.1443375672974063217, -0.2499999999999999722, 0.1880000000000000282 ) ) ;
#72 = CARTESIAN_POINT ( 'NONE',  ( -0.2886751345948128655, 6.809993419335529712E-17, 0.1880000000000000282 ) ) ;
#73 = ORIENTED_EDGE ( 'NONE', *, *, #308, .T. ) ;
#74 = DIRECTION ( 'NONE',  ( -1.000000000000000000, -1.182924880895401264E-16, 0.0000000000000000000 ) ) ;
#75 = VERTEX_POINT ( 'NONE', #238 ) ;
#76 = EDGE_CURVE ( 'NONE', #35, #194, #166, .T. ) ;
#77 = FILL_AREA_STYLE ('',( #153 ) ) ;
#78 = ORIENTED_EDGE ( 'NONE', *, *, #110, .F. ) ;
#79 = VERTEX_POINT ( 'NONE', #275 ) ;
#80 = SHAPE_DEFINITION_REPRESENTATION ( #136, #259 ) ;
#81 = FILL_AREA_STYLE_COLOUR ( '', #276 ) ;
#82 = MECHANICAL_DESIGN_GEOMETRIC_PRESENTATION_REPRESENTATION (  '', ( #182 ), #312 ) ;
#83 = CARTESIAN_POINT ( 'NONE',  ( 0.2886751345948129210, -3.392667169346791278E-17, 0.1880000000000000282 ) ) ;
#84 =( NAMED_UNIT ( * ) PLANE_ANGLE_UNIT ( ) SI_UNIT ( $, .RADIAN. ) );
#85 = ORIENTED_EDGE ( 'NONE', *, *, #126, .T. ) ;
#86 = DIRECTION ( 'NONE',  ( 0.5000000000000001110, 0.8660254037844385966, 0.0000000000000000000 ) ) ;
#87 = CARTESIAN_POINT ( 'NONE',  ( 0.1443375672974065438, -0.2499999999999999167, 0.1880000000000000282 ) ) ;
#88 = SURFACE_SIDE_STYLE ('',( #8 ) ) ;
#89 = CARTESIAN_POINT ( 'NONE',  ( -0.1443375672974064050, 0.2500000000000000555, 0.1880000000000000282 ) ) ;
#90 = CARTESIAN_POINT ( 'NONE',  ( 0.0000000000000000000, 0.0000000000000000000, 0.0000000000000000000 ) ) ;
#91 = EDGE_CURVE ( 'NONE', #245, #175, #96, .T. ) ;
#92 = ORIENTED_EDGE ( 'NONE', *, *, #199, .F. ) ;
#93 = DIRECTION ( 'NONE',  ( -1.000000000000000000, 0.0000000000000000000, 0.0000000000000000000 ) ) ;
#94 = ORIENTED_EDGE ( 'NONE', *, *, #76, .F. ) ;
#95 = ORIENTED_EDGE ( 'NONE', *, *, #347, .T. ) ;
#96 = LINE ( 'NONE', #55, #118 ) ;
#97 = SURFACE_STYLE_USAGE ( .BOTH. , #69 ) ;
#98 = CARTESIAN_POINT ( 'NONE',  ( -0.1443375672974063217, -0.2499999999999999722, 0.1880000000000000282 ) ) ;
#99 = AXIS2_PLACEMENT_3D ( 'NONE', #72, #149, #165 ) ;
#100 = UNCERTAINTY_MEASURE_WITH_UNIT (LENGTH_MEASURE( 1.000000000000000082E-05 ), #59, 'distance_accuracy_value', 'NONE');
#101 = DIRECTION ( 'NONE',  ( 1.000000000000000000, 0.0000000000000000000, 0.0000000000000000000 ) ) ;
#102 = EDGE_LOOP ( 'NONE', ( #94, #265, #106, #155 ) ) ;
#103 = ORIENTED_EDGE ( 'NONE', *, *, #294, .F. ) ;
#104 = DIRECTION ( 'NONE',  ( -0.8660254037844387076, 0.4999999999999998890, 0.0000000000000000000 ) ) ;
#105 = UNCERTAINTY_MEASURE_WITH_UNIT (LENGTH_MEASURE( 1.000000000000000082E-05 ), #268, 'distance_accuracy_value', 'NONE');
#106 = ORIENTED_EDGE ( 'NONE', *, *, #18, .T. ) ;
#107 = CARTESIAN_POINT ( 'NONE',  ( -0.1443375672974064050, 0.2500000000000000555, 0.1880000000000000282 ) ) ;
#108 = CARTESIAN_POINT ( 'NONE',  ( 0.0000000000000000000, 0.0000000000000000000, 0.0000000000000000000 ) ) ;
#109 = EDGE_LOOP ( 'NONE', ( #227, #38 ) ) ;
#110 = EDGE_CURVE ( 'NONE', #215, #79, #198, .T. ) ;
#111 = MECHANICAL_DESIGN_GEOMETRIC_PRESENTATION_REPRESENTATION (  '', ( #305 ), #243 ) ;
#112 = PRODUCT_CONTEXT ( 'NONE', #201, 'mechanical' ) ;
#113 = DIRECTION ( 'NONE',  ( -0.0000000000000000000, -0.0000000000000000000, -1.000000000000000000 ) ) ;
#114 = VERTEX_POINT ( 'NONE', #207 ) ;
#115 = CARTESIAN_POINT ( 'NONE',  ( 0.0000000000000000000, 0.0000000000000000000, 0.1880000000000000282 ) ) ;
#116 = DIRECTION ( 'NONE',  ( 1.000000000000000000, 0.0000000000000000000, 0.0000000000000000000 ) ) ;
#117 = AXIS2_PLACEMENT_3D ( 'NONE', #108, #288, #321 ) ;
#118 = VECTOR ( 'NONE', #280, 39.37007874015748854 ) ;
#119 =( NAMED_UNIT ( * ) SI_UNIT ( $, .STERADIAN. ) SOLID_ANGLE_UNIT ( ) );
#120 = DIRECTION ( 'NONE',  ( -0.5000000000000000000, -0.8660254037844385966, 0.0000000000000000000 ) ) ;
#121 = ADVANCED_FACE ( 'NONE', ( #9, #239 ), #313, .F. ) ;
#122 = ORIENTED_EDGE ( 'NONE', *, *, #146, .T. ) ;
#123 = ORIENTED_EDGE ( 'NONE', *, *, #32, .F. ) ;
#124 = CARTESIAN_POINT ( 'NONE',  ( 0.0000000000000000000, 0.0000000000000000000, 0.0000000000000000000 ) ) ;
#125 = VECTOR ( 'NONE', #231, 39.37007874015748143 ) ;
#126 = EDGE_CURVE ( 'NONE', #79, #75, #260, .T. ) ;
#127 = CARTESIAN_POINT ( 'NONE',  ( -0.2886751345948128655, 6.809993419335529712E-17, 0.0000000000000000000 ) ) ;
#128 = LENGTH_MEASURE_WITH_UNIT ( LENGTH_MEASURE( 0.02539999999999999897 ), #297 );
#129 = CARTESIAN_POINT ( 'NONE',  ( -0.2886751345948128655, 6.809993419335529712E-17, 0.1880000000000000282 ) ) ;
#130 = CARTESIAN_POINT ( 'NONE',  ( 0.1443375672974063217, 0.2500000000000000555, 0.0000000000000000000 ) ) ;
#131 = EDGE_CURVE ( 'NONE', #175, #210, #296, .T. ) ;
#132 = ORIENTED_EDGE ( 'NONE', *, *, #218, .F. ) ;
#133 = VECTOR ( 'NONE', #225, 39.37007874015748143 ) ;
#134 = CLOSED_SHELL ( 'NONE', ( #307, #246, #121, #151, #177, #173, #10, #298, #220, #41 ) ) ;
#135 = PLANE ( 'NONE',  #37 ) ;
#136 = PRODUCT_DEFINITION_SHAPE ( 'NONE', 'NONE',  #197 ) ;
#137 = PRESENTATION_LAYER_ASSIGNMENT (  '', '', ( #182 ) ) ;
#138 = ORIENTED_EDGE ( 'NONE', *, *, #152, .T. ) ;
#139 = SURFACE_STYLE_USAGE ( .BOTH. , #88 ) ;
#140 = DIRECTION ( 'NONE',  ( 0.0000000000000000000, 0.0000000000000000000, 1.000000000000000000 ) ) ;
#141 = ORIENTED_EDGE ( 'NONE', *, *, #152, .F. ) ;
#142 = VECTOR ( 'NONE', #204, 39.37007874015748143 ) ;
#143 = VERTEX_POINT ( 'NONE', #283 ) ;
#144 = PLANE ( 'NONE',  #217 ) ;
#145 = DIRECTION ( 'NONE',  ( 0.4999999999999998890, 0.8660254037844385966, 0.0000000000000000000 ) ) ;
#146 = EDGE_CURVE ( 'NONE', #175, #215, #300, .T. ) ;
#147 = CARTESIAN_POINT ( 'NONE',  ( -0.3937007874015748254, 0.0000000000000000000, 0.1880000000000000282 ) ) ;
#148 = COLOUR_RGB ( '',0.2980392156862745057, 0.2980392156862745057, 0.2980392156862745057 ) ;
#149 = DIRECTION ( 'NONE',  ( 0.8660254037844385966, 0.5000000000000003331, -0.0000000000000000000 ) ) ;
#150 = DIRECTION ( 'NONE',  ( 1.000000000000000000, 1.182924880895401264E-16, 0.0000000000000000000 ) ) ;
#151 = ADVANCED_FACE ( 'NONE', ( #13 ), #270, .T. ) ;
#152 = EDGE_CURVE ( 'NONE', #278, #114, #33, .T. ) ;
#153 = FILL_AREA_STYLE_COLOUR ( '', #148 ) ;
#154 = CARTESIAN_POINT ( 'NONE',  ( 0.0000000000000000000, 0.0000000000000000000, 0.1880000000000000282 ) ) ;
#155 = ORIENTED_EDGE ( 'NONE', *, *, #347, .F. ) ;
#156 = EDGE_CURVE ( 'NONE', #114, #162, #256, .T. ) ;
#157 = DIRECTION ( 'NONE',  ( 0.4999999999999998890, 0.8660254037844385966, 0.0000000000000000000 ) ) ;
#158 = PRESENTATION_STYLE_ASSIGNMENT (( #139 ) ) ;
#159 = CARTESIAN_POINT ( 'NONE',  ( -0.1443375672974064050, 0.2500000000000000555, 0.0000000000000000000 ) ) ;
#160 = CARTESIAN_POINT ( 'NONE',  ( 0.1443375672974065438, -0.2499999999999999167, 0.1880000000000000282 ) ) ;
#161 = EDGE_CURVE ( 'NONE', #56, #143, #279, .T. ) ;
#162 = VERTEX_POINT ( 'NONE', #236 ) ;
#163 = AXIS2_PLACEMENT_3D ( 'NONE', #240, #36, #93 ) ;
#164 = DIRECTION ( 'NONE',  ( 1.000000000000000000, 0.0000000000000000000, 0.0000000000000000000 ) ) ;
#165 = DIRECTION ( 'NONE',  ( -0.5000000000000002220, 0.8660254037844384856, 0.0000000000000000000 ) ) ;
#166 = CIRCLE ( 'NONE', #60, 0.3937007874015748254 ) ;
#167 = CARTESIAN_POINT ( 'NONE',  ( 0.1443375672974065438, -0.2499999999999999167, 0.0000000000000000000 ) ) ;
#168 = ORIENTED_EDGE ( 'NONE', *, *, #294, .T. ) ;
#169 = LENGTH_MEASURE_WITH_UNIT ( LENGTH_MEASURE( 0.02539999999999999897 ), #26 );
#170 = VECTOR ( 'NONE', #350, 39.37007874015748143 ) ;
#171 = ORIENTED_EDGE ( 'NONE', *, *, #11, .F. ) ;
#172 = PLANE ( 'NONE',  #99 ) ;
#173 = ADVANCED_FACE ( 'NONE', ( #284 ), #135, .T. ) ;
#174 = CARTESIAN_POINT ( 'NONE',  ( -0.1443375672974064050, 0.2500000000000000555, 0.1880000000000000282 ) ) ;
#175 = VERTEX_POINT ( 'NONE', #212 ) ;
#176 = VECTOR ( 'NONE', #49, 39.37007874015748143 ) ;
#177 = ADVANCED_FACE ( 'NONE', ( #290 ), #208, .T. ) ;
#178 = CARTESIAN_POINT ( 'NONE',  ( 0.2886751345948129210, -3.392667169346791278E-17, 0.0000000000000000000 ) ) ;
#179 = EDGE_CURVE ( 'NONE', #162, #187, #272, .T. ) ;
#180 = DIRECTION ( 'NONE',  ( -1.000000000000000000, 0.0000000000000000000, 0.0000000000000000000 ) ) ;
#181 = VECTOR ( 'NONE', #12, 39.37007874015748143 ) ;
#182 = STYLED_ITEM ( 'NONE', ( #295 ), #184 ) ;
#183 = PRODUCT_RELATED_PRODUCT_CATEGORY ( 'part', '', ( #303 ) ) ;
#184 = MANIFOLD_SOLID_BREP ( 'Boss-Extrude1', #134 ) ;
#185 = ORIENTED_EDGE ( 'NONE', *, *, #131, .F. ) ;
#186 = ORIENTED_EDGE ( 'NONE', *, *, #161, .T. ) ;
#187 = VERTEX_POINT ( 'NONE', #159 ) ;
#188 = APPLICATION_PROTOCOL_DEFINITION ( 'draft international standard', 'automotive_design', 1998, #258 ) ;
#189 = EDGE_LOOP ( 'NONE', ( #138, #200, #334, #344, #343, #241 ) ) ;
#190 = EDGE_CURVE ( 'NONE', #210, #340, #328, .T. ) ;
#191 = FILL_AREA_STYLE ('',( #81 ) ) ;
#192 = EDGE_LOOP ( 'NONE', ( #2, #43, #52, #73 ) ) ;
#193 = EDGE_LOOP ( 'NONE', ( #263, #327 ) ) ;
#194 = VERTEX_POINT ( 'NONE', #147 ) ;
#195 = CARTESIAN_POINT ( 'NONE',  ( -0.2886751345948128655, 6.809993419335529712E-17, 0.0000000000000000000 ) ) ;
#196 = CARTESIAN_POINT ( 'NONE',  ( -0.1443375672974063217, -0.2499999999999999722, 0.0000000000000000000 ) ) ;
#197 = PRODUCT_DEFINITION ( 'UNKNOWN', '', #293, #230 ) ;
#198 = LINE ( 'NONE', #14, #338 ) ;
#199 = EDGE_CURVE ( 'NONE', #187, #210, #335, .T. ) ;
#200 = ORIENTED_EDGE ( 'NONE', *, *, #156, .T. ) ;
#201 = APPLICATION_CONTEXT ( 'automotive_design' ) ;
#202 = CARTESIAN_POINT ( 'NONE',  ( 0.1443375672974063217, 0.2500000000000000555, 0.1880000000000000282 ) ) ;
#203 = ORIENTED_EDGE ( 'NONE', *, *, #110, .T. ) ;
#204 = DIRECTION ( 'NONE',  ( -0.0000000000000000000, -0.0000000000000000000, -1.000000000000000000 ) ) ;
#205 = ORIENTED_EDGE ( 'NONE', *, *, #351, .T. ) ;
#206 = EDGE_LOOP ( 'NONE', ( #171, #271, #95, #186 ) ) ;
#207 = CARTESIAN_POINT ( 'NONE',  ( 0.2886751345948129210, -3.392667169346791278E-17, 0.0000000000000000000 ) ) ;
#208 = PLANE ( 'NONE',  #292 ) ;
#209 = DIRECTION ( 'NONE',  ( -0.4999999999999998335, -0.8660254037844385966, 0.0000000000000000000 ) ) ;
#210 = VERTEX_POINT ( 'NONE', #195 ) ;
#211 = PLANE ( 'NONE',  #233 ) ;
#212 = CARTESIAN_POINT ( 'NONE',  ( -0.2886751345948128655, 6.809993419335529712E-17, 0.1880000000000000282 ) ) ;
#213 = CARTESIAN_POINT ( 'NONE',  ( 0.1443375672974063217, 0.2500000000000000555, 0.1880000000000000282 ) ) ;
#214 = VECTOR ( 'NONE', #22, 39.37007874015748143 ) ;
#215 = VERTEX_POINT ( 'NONE', #71 ) ;
#216 = CYLINDRICAL_SURFACE ( 'NONE', #16, 0.3937007874015748254 ) ;
#217 = AXIS2_PLACEMENT_3D ( 'NONE', #154, #332, #315 ) ;
#218 = EDGE_CURVE ( 'NONE', #340, #278, #319, .T. ) ;
#219 = DIRECTION ( 'NONE',  ( 0.5000000000000002220, -0.8660254037844384856, 0.0000000000000000000 ) ) ;
#220 = ADVANCED_FACE ( 'NONE', ( #322 ), #172, .T. ) ;
#221 = DIRECTION ( 'NONE',  ( -1.182924880895401264E-16, 1.000000000000000000, 0.0000000000000000000 ) ) ;
#222 = CARTESIAN_POINT ( 'NONE',  ( 0.1443375672974063217, 0.2500000000000000555, 0.1880000000000000282 ) ) ;
#223 = EDGE_CURVE ( 'NONE', #215, #340, #302, .T. ) ;
#224 = EDGE_LOOP ( 'NONE', ( #141, #103, #85, #66 ) ) ;
#225 = DIRECTION ( 'NONE',  ( -0.0000000000000000000, -0.0000000000000000000, -1.000000000000000000 ) ) ;
#226 = LENGTH_MEASURE_WITH_UNIT ( LENGTH_MEASURE( 0.02539999999999999897 ), #291 );
#227 = ORIENTED_EDGE ( 'NONE', *, *, #161, .F. ) ;
#228 = DIRECTION ( 'NONE',  ( 0.8660254037844385966, -0.5000000000000001110, 0.0000000000000000000 ) ) ;
#229 = CARTESIAN_POINT ( 'NONE',  ( 0.1443375672974063217, 0.2500000000000000555, 0.1880000000000000282 ) ) ;
#230 = PRODUCT_DEFINITION_CONTEXT ( 'detailed design', #258, 'design' ) ;
#231 = DIRECTION ( 'NONE',  ( -0.0000000000000000000, -0.0000000000000000000, -1.000000000000000000 ) ) ;
#232 = ORIENTED_EDGE ( 'NONE', *, *, #179, .F. ) ;
#233 = AXIS2_PLACEMENT_3D ( 'NONE', #107, #228, #86 ) ;
#234 = AXIS2_PLACEMENT_3D ( 'NONE', #23, #140, #164 ) ;
#235 =( NAMED_UNIT ( * ) PLANE_ANGLE_UNIT ( ) SI_UNIT ( $, .RADIAN. ) );
#236 = CARTESIAN_POINT ( 'NONE',  ( 0.1443375672974063217, 0.2500000000000000555, 0.0000000000000000000 ) ) ;
#237 = DIMENSIONAL_EXPONENTS ( 1.000000000000000000, 0.0000000000000000000, 0.0000000000000000000, 0.0000000000000000000, 0.0000000000000000000, 0.0000000000000000000, 0.0000000000000000000 ) ;
#238 = CARTESIAN_POINT ( 'NONE',  ( 0.2886751345948129210, -3.392667169346791278E-17, 0.1880000000000000282 ) ) ;
#239 = FACE_BOUND ( 'NONE', #189, .T. ) ;
#240 = CARTESIAN_POINT ( 'NONE',  ( 0.0000000000000000000, 0.0000000000000000000, 0.1880000000000000282 ) ) ;
#241 = ORIENTED_EDGE ( 'NONE', *, *, #218, .T. ) ;
#242 = PRESENTATION_LAYER_ASSIGNMENT (  '', '', ( #305 ) ) ;
#243 =( GEOMETRIC_REPRESENTATION_CONTEXT ( 3 ) GLOBAL_UNCERTAINTY_ASSIGNED_CONTEXT ( ( #100 ) ) GLOBAL_UNIT_ASSIGNED_CONTEXT ( ( #59, #235, #323 ) ) REPRESENTATION_CONTEXT ( 'NONE', 'WORKASPACE' ) );
#244 = EDGE_CURVE ( 'NONE', #194, #35, #70, .T. ) ;
#245 = VERTEX_POINT ( 'NONE', #89 ) ;
#246 = ADVANCED_FACE ( 'NONE', ( #251, #273 ), #144, .T. ) ;
#247 = CARTESIAN_POINT ( 'NONE',  ( 0.2886751345948129210, -3.392667169346791278E-17, 0.1880000000000000282 ) ) ;
#248 = LINE ( 'NONE', #247, #324 ) ;
#249 = DIRECTION ( 'NONE',  ( 0.5000000000000002220, -0.8660254037844384856, 0.0000000000000000000 ) ) ;
#250 = CARTESIAN_POINT ( 'NONE',  ( -0.3937007874015748254, 0.0000000000000000000, 0.1880000000000000282 ) ) ;
#251 = FACE_OUTER_BOUND ( 'NONE', #193, .T. ) ;
#252 = DIRECTION ( 'NONE',  ( 0.0000000000000000000, -0.0000000000000000000, -1.000000000000000000 ) ) ;
#253 = LINE ( 'NONE', #87, #20 ) ;
#254 = ORIENTED_EDGE ( 'NONE', *, *, #190, .F. ) ;
#255 = CIRCLE ( 'NONE', #269, 0.3937007874015748254 ) ;
#256 = LINE ( 'NONE', #178, #285 ) ;
#257 =( GEOMETRIC_REPRESENTATION_CONTEXT ( 3 ) GLOBAL_UNCERTAINTY_ASSIGNED_CONTEXT ( ( #281 ) ) GLOBAL_UNIT_ASSIGNED_CONTEXT ( ( #54, #29, #348 ) ) REPRESENTATION_CONTEXT ( 'NONE', 'WORKASPACE' ) );
#258 = APPLICATION_CONTEXT ( 'automotive_design' ) ;
#259 = ADVANCED_BREP_SHAPE_REPRESENTATION ( 'am-3948-188 500H x 188IN Spacer', ( #184, #234 ), #257 ) ;
#260 = LINE ( 'NONE', #17, #57 ) ;
#261 = EDGE_LOOP ( 'NONE', ( #132, #5, #203, #168 ) ) ;
#262 = VECTOR ( 'NONE', #31, 39.37007874015748143 ) ;
#263 = ORIENTED_EDGE ( 'NONE', *, *, #244, .T. ) ;
#264 = CARTESIAN_POINT ( 'NONE',  ( -0.1443375672974063217, -0.2499999999999999722, 0.1880000000000000282 ) ) ;
#265 = ORIENTED_EDGE ( 'NONE', *, *, #11, .T. ) ;
#266 = DIRECTION ( 'NONE',  ( 0.5000000000000002220, -0.8660254037844384856, 0.0000000000000000000 ) ) ;
#267 = AXIS2_PLACEMENT_3D ( 'NONE', #336, #301, #116 ) ;
#268 =( CONVERSION_BASED_UNIT ( 'INCH', #128 ) LENGTH_UNIT ( ) NAMED_UNIT ( #237 ) );
#269 = AXIS2_PLACEMENT_3D ( 'NONE', #124, #309, #101 ) ;
#270 = CYLINDRICAL_SURFACE ( 'NONE', #163, 0.3937007874015748254 ) ;
#271 = ORIENTED_EDGE ( 'NONE', *, *, #244, .F. ) ;
#272 = LINE ( 'NONE', #130, #262 ) ;
#273 = FACE_BOUND ( 'NONE', #62, .T. ) ;
#274 = ORIENTED_EDGE ( 'NONE', *, *, #32, .T. ) ;
#275 = CARTESIAN_POINT ( 'NONE',  ( 0.1443375672974065438, -0.2499999999999999167, 0.1880000000000000282 ) ) ;
#276 = COLOUR_RGB ( '',0.2980392156862745057, 0.2980392156862745057, 0.2980392156862745057 ) ;
#277 = CARTESIAN_POINT ( 'NONE',  ( -0.3937007874015748254, 0.0000000000000000000, 0.0000000000000000000 ) ) ;
#278 = VERTEX_POINT ( 'NONE', #48 ) ;
#279 = CIRCLE ( 'NONE', #117, 0.3937007874015748254 ) ;
#280 = DIRECTION ( 'NONE',  ( -0.5000000000000000000, -0.8660254037844385966, 0.0000000000000000000 ) ) ;
#281 = UNCERTAINTY_MEASURE_WITH_UNIT (LENGTH_MEASURE( 1.000000000000000082E-05 ), #54, 'distance_accuracy_value', 'NONE');
#282 = DIRECTION ( 'NONE',  ( -0.8660254037844385966, -0.5000000000000003331, 0.0000000000000000000 ) ) ;
#283 = CARTESIAN_POINT ( 'NONE',  ( 0.3937007874015748254, 4.821444091131312140E-17, 0.0000000000000000000 ) ) ;
#284 = FACE_OUTER_BOUND ( 'NONE', #192, .T. ) ;
#285 = VECTOR ( 'NONE', #318, 39.37007874015749564 ) ;
#286 = CARTESIAN_POINT ( 'NONE',  ( -0.1443375672974063217, -0.2499999999999999722, 0.0000000000000000000 ) ) ;
#287 = EDGE_CURVE ( 'NONE', #75, #114, #314, .T. ) ;
#288 = DIRECTION ( 'NONE',  ( 0.0000000000000000000, 0.0000000000000000000, 1.000000000000000000 ) ) ;
#289 = SURFACE_STYLE_FILL_AREA ( #191 ) ;
#290 = FACE_OUTER_BOUND ( 'NONE', #224, .T. ) ;
#291 =( LENGTH_UNIT ( ) NAMED_UNIT ( * ) SI_UNIT ( $, .METRE. ) );
#292 = AXIS2_PLACEMENT_3D ( 'NONE', #160, #104, #209 ) ;
#293 = PRODUCT_DEFINITION_FORMATION_WITH_SPECIFIED_SOURCE ( 'ANY', '', #303, .NOT_KNOWN. ) ;
#294 = EDGE_CURVE ( 'NONE', #79, #278, #253, .T. ) ;
#295 = PRESENTATION_STYLE_ASSIGNMENT (( #97 ) ) ;
#296 = LINE ( 'NONE', #129, #133 ) ;
#297 =( LENGTH_UNIT ( ) NAMED_UNIT ( * ) SI_UNIT ( $, .METRE. ) );
#298 = ADVANCED_FACE ( 'NONE', ( #28 ), #211, .T. ) ;
#299 = VERTEX_POINT ( 'NONE', #229 ) ;
#300 = LINE ( 'NONE', #46, #68 ) ;
#301 = DIRECTION ( 'NONE',  ( 0.0000000000000000000, 0.0000000000000000000, 1.000000000000000000 ) ) ;
#302 = LINE ( 'NONE', #264, #304 ) ;
#303 = PRODUCT ( 'am-3948-188 500H x 188IN Spacer', 'am-3948-188 500H x 188IN Spacer', '', ( #112 ) ) ;
#304 = VECTOR ( 'NONE', #113, 39.37007874015748143 ) ;
#305 = STYLED_ITEM ( 'NONE', ( #158 ), #259 ) ;
#306 = LINE ( 'NONE', #174, #125 ) ;
#307 = ADVANCED_FACE ( 'NONE', ( #339 ), #216, .T. ) ;
#308 = EDGE_CURVE ( 'NONE', #299, #162, #329, .T. ) ;
#309 = DIRECTION ( 'NONE',  ( 0.0000000000000000000, 0.0000000000000000000, 1.000000000000000000 ) ) ;
#310 = ORIENTED_EDGE ( 'NONE', *, *, #308, .F. ) ;
#311 = DIRECTION ( 'NONE',  ( 0.0000000000000000000, 0.0000000000000000000, 1.000000000000000000 ) ) ;
#312 =( GEOMETRIC_REPRESENTATION_CONTEXT ( 3 ) GLOBAL_UNCERTAINTY_ASSIGNED_CONTEXT ( ( #105 ) ) GLOBAL_UNIT_ASSIGNED_CONTEXT ( ( #268, #84, #119 ) ) REPRESENTATION_CONTEXT ( 'NONE', 'WORKASPACE' ) );
#313 = PLANE ( 'NONE',  #333 ) ;
#314 = LINE ( 'NONE', #51, #214 ) ;
#315 = DIRECTION ( 'NONE',  ( 1.000000000000000000, 0.0000000000000000000, -0.0000000000000000000 ) ) ;
#316 = VECTOR ( 'NONE', #150, 39.37007874015748143 ) ;
#317 = DIMENSIONAL_EXPONENTS ( 1.000000000000000000, 0.0000000000000000000, 0.0000000000000000000, 0.0000000000000000000, 0.0000000000000000000, 0.0000000000000000000, 0.0000000000000000000 ) ;
#318 = DIRECTION ( 'NONE',  ( -0.5000000000000002220, 0.8660254037844384856, 0.0000000000000000000 ) ) ;
#319 = LINE ( 'NONE', #196, #316 ) ;
#320 = VECTOR ( 'NONE', #120, 39.37007874015748854 ) ;
#321 = DIRECTION ( 'NONE',  ( 1.000000000000000000, 0.0000000000000000000, 0.0000000000000000000 ) ) ;
#322 = FACE_OUTER_BOUND ( 'NONE', #64, .T. ) ;
#323 =( NAMED_UNIT ( * ) SI_UNIT ( $, .STERADIAN. ) SOLID_ANGLE_UNIT ( ) );
#324 = VECTOR ( 'NONE', #40, 39.37007874015749564 ) ;
#325 = ORIENTED_EDGE ( 'NONE', *, *, #351, .F. ) ;
#326 = VECTOR ( 'NONE', #219, 39.37007874015749564 ) ;
#327 = ORIENTED_EDGE ( 'NONE', *, *, #76, .T. ) ;
#328 = LINE ( 'NONE', #127, #326 ) ;
#329 = LINE ( 'NONE', #213, #170 ) ;
#330 = ORIENTED_EDGE ( 'NONE', *, *, #91, .F. ) ;
#331 = DIRECTION ( 'NONE',  ( 1.000000000000000000, 0.0000000000000000000, 0.0000000000000000000 ) ) ;
#332 = DIRECTION ( 'NONE',  ( 0.0000000000000000000, 0.0000000000000000000, 1.000000000000000000 ) ) ;
#333 = AXIS2_PLACEMENT_3D ( 'NONE', #90, #4, #47 ) ;
#334 = ORIENTED_EDGE ( 'NONE', *, *, #179, .T. ) ;
#335 = LINE ( 'NONE', #15, #320 ) ;
#336 = CARTESIAN_POINT ( 'NONE',  ( 0.0000000000000000000, 0.0000000000000000000, 0.1880000000000000282 ) ) ;
#337 = AXIS2_PLACEMENT_3D ( 'NONE', #222, #65, #252 ) ;
#338 = VECTOR ( 'NONE', #45, 39.37007874015748143 ) ;
#339 = FACE_OUTER_BOUND ( 'NONE', #102, .T. ) ;
#340 = VERTEX_POINT ( 'NONE', #286 ) ;
#341 = PLANE ( 'NONE',  #61 ) ;
#342 = EDGE_LOOP ( 'NONE', ( #92, #325, #42, #345 ) ) ;
#343 = ORIENTED_EDGE ( 'NONE', *, *, #190, .T. ) ;
#344 = ORIENTED_EDGE ( 'NONE', *, *, #199, .T. ) ;
#345 = ORIENTED_EDGE ( 'NONE', *, *, #131, .T. ) ;
#346 = DIRECTION ( 'NONE',  ( -0.0000000000000000000, -0.0000000000000000000, -1.000000000000000000 ) ) ;
#347 = EDGE_CURVE ( 'NONE', #194, #56, #1, .T. ) ;
#348 =( NAMED_UNIT ( * ) SI_UNIT ( $, .STERADIAN. ) SOLID_ANGLE_UNIT ( ) );
#349 = EDGE_LOOP ( 'NONE', ( #232, #310, #274, #205 ) ) ;
#350 = DIRECTION ( 'NONE',  ( -0.0000000000000000000, -0.0000000000000000000, -1.000000000000000000 ) ) ;
#351 = EDGE_CURVE ( 'NONE', #245, #187, #306, .T. ) ;
ENDSEC;
END-ISO-10303-21;
