ISO-10303-21;
HEADER;
FILE_DESCRIPTION (( 'STEP AP214' ),
    '1' );
FILE_NAME ('am-0089 3-16'''' id Oillite Bushing.STEP',
    '2014-08-20T20:32:24',
    ( '' ),
    ( '' ),
    'SwSTEP 2.0',
    'SolidWorks 2014',
    '' );
FILE_SCHEMA (( 'AUTOMOTIVE_DESIGN' ));
ENDSEC;

DATA;
#1 = APPLICATION_PROTOCOL_DEFINITION ( 'draft international standard', 'automotive_design', 1998, #8 ) ;
#2 =( LENGTH_UNIT ( ) NAMED_UNIT ( * ) SI_UNIT ( $, .METRE. ) );
#3 = MECHANICAL_DESIGN_GEOMETRIC_PRESENTATION_REPRESENTATION (  '', ( #311 ), #295 ) ;
#4 = PRODUCT ( 'am-0089 3-16'''''''' id Oillite Bushing', 'am-0089 3-16'''''''' id Oillite Bushing', '', ( #5 ) ) ;
#5 = PRODUCT_CONTEXT ( 'NONE', #16, 'mechanical' ) ;
#6 = DIRECTION ( 'NONE',  ( 1.000000000000000000, 0.0000000000000000000, 0.0000000000000000000 ) ) ;
#7 = DIRECTION ( 'NONE',  ( 0.0000000000000000000, 0.0000000000000000000, 1.000000000000000000 ) ) ;
#8 = APPLICATION_CONTEXT ( 'automotive_design' ) ;
#9 = FILL_AREA_STYLE ('',( #32 ) ) ;
#10 =( NAMED_UNIT ( * ) SI_UNIT ( $, .STERADIAN. ) SOLID_ANGLE_UNIT ( ) );
#11 =( NAMED_UNIT ( * ) SI_UNIT ( $, .STERADIAN. ) SOLID_ANGLE_UNIT ( ) );
#12 = ORIENTED_EDGE ( 'NONE', *, *, #316, .T. ) ;
#13 = CARTESIAN_POINT ( 'NONE',  ( 1.913510623667739500E-017, 0.5000000000000000000, 0.1562500000000000000 ) ) ;
#14 =( NAMED_UNIT ( * ) PLANE_ANGLE_UNIT ( ) SI_UNIT ( $, .RADIAN. ) );
#15 =( CONVERSION_BASED_UNIT ( 'INCH', #48 ) LENGTH_UNIT ( ) NAMED_UNIT ( #152 ) );
#16 = APPLICATION_CONTEXT ( 'automotive_design' ) ;
#17 = SURFACE_STYLE_USAGE ( .BOTH. , #18 ) ;
#18 = SURFACE_SIDE_STYLE ('',( #60 ) ) ;
#19 = DIRECTION ( 'NONE',  ( 0.0000000000000000000, 0.0000000000000000000, -1.000000000000000000 ) ) ;
#20 = APPLICATION_PROTOCOL_DEFINITION ( 'draft international standard', 'automotive_design', 1998, #16 ) ;
#21 =( NAMED_UNIT ( * ) PLANE_ANGLE_UNIT ( ) SI_UNIT ( $, .RADIAN. ) );
#22 =( CONVERSION_BASED_UNIT ( 'INCH', #57 ) LENGTH_UNIT ( ) NAMED_UNIT ( #206 ) );
#23 =( LENGTH_UNIT ( ) NAMED_UNIT ( * ) SI_UNIT ( $, .METRE. ) );
#24 = UNCERTAINTY_MEASURE_WITH_UNIT (LENGTH_MEASURE( 1.000000000000000100E-005 ), #328, 'distance_accuracy_value', 'NONE');
#25 = DIRECTION ( 'NONE',  ( 0.0000000000000000000, 0.0000000000000000000, -1.000000000000000000 ) ) ;
#26 = DIRECTION ( 'NONE',  ( -0.0000000000000000000, -1.000000000000000000, 0.0000000000000000000 ) ) ;
#27 = CARTESIAN_POINT ( 'NONE',  ( 0.0000000000000000000, 0.06249999999999997900, 0.0000000000000000000 ) ) ;
#28 = DIRECTION ( 'NONE',  ( 0.0000000000000000000, 0.0000000000000000000, -1.000000000000000000 ) ) ;
#29 = DIRECTION ( 'NONE',  ( -0.0000000000000000000, -1.000000000000000000, 0.0000000000000000000 ) ) ;
#30 = CARTESIAN_POINT ( 'NONE',  ( 0.0000000000000000000, 0.0000000000000000000, 0.0000000000000000000 ) ) ;
#31 = CARTESIAN_POINT ( 'NONE',  ( 0.0000000000000000000, 0.5000000000000000000, 0.0000000000000000000 ) ) ;
#32 = FILL_AREA_STYLE_COLOUR ( '', #53 ) ;
#33 = DIRECTION ( 'NONE',  ( 0.0000000000000000000, 0.0000000000000000000, -1.000000000000000000 ) ) ;
#34 = DIRECTION ( 'NONE',  ( -0.0000000000000000000, -1.000000000000000000, 0.0000000000000000000 ) ) ;
#35 = CARTESIAN_POINT ( 'NONE',  ( 0.0000000000000000000, 0.06249999999999997900, 0.0000000000000000000 ) ) ;
#36 = DIRECTION ( 'NONE',  ( -0.0000000000000000000, -1.000000000000000000, 0.0000000000000000000 ) ) ;
#37 = CARTESIAN_POINT ( 'NONE',  ( 0.0000000000000000000, 0.06249999999999997900, 0.0000000000000000000 ) ) ;
#38 = DIRECTION ( 'NONE',  ( 0.0000000000000000000, 0.0000000000000000000, -1.000000000000000000 ) ) ;
#39 = DIRECTION ( 'NONE',  ( -0.0000000000000000000, -1.000000000000000000, 0.0000000000000000000 ) ) ;
#40 = CARTESIAN_POINT ( 'NONE',  ( 0.0000000000000000000, 0.0000000000000000000, 0.0000000000000000000 ) ) ;
#41 = DIRECTION ( 'NONE',  ( -0.0000000000000000000, -1.000000000000000000, 0.0000000000000000000 ) ) ;
#42 = SHAPE_DEFINITION_REPRESENTATION ( #135, #217 ) ;
#43 = DIRECTION ( 'NONE',  ( 0.0000000000000000000, 0.0000000000000000000, -1.000000000000000000 ) ) ;
#44 = CARTESIAN_POINT ( 'NONE',  ( 0.0000000000000000000, 0.0000000000000000000, 0.0000000000000000000 ) ) ;
#45 = CARTESIAN_POINT ( 'NONE',  ( 0.0000000000000000000, 0.0000000000000000000, -0.1562500000000000800 ) ) ;
#46 = DIRECTION ( 'NONE',  ( 0.0000000000000000000, 0.0000000000000000000, -1.000000000000000000 ) ) ;
#47 = DIRECTION ( 'NONE',  ( -0.0000000000000000000, -1.000000000000000000, 0.0000000000000000000 ) ) ;
#48 = LENGTH_MEASURE_WITH_UNIT ( LENGTH_MEASURE( 0.02539999999999999900 ), #2 );
#49 = DIRECTION ( 'NONE',  ( -0.0000000000000000000, -1.000000000000000000, 0.0000000000000000000 ) ) ;
#50 = CARTESIAN_POINT ( 'NONE',  ( 0.0000000000000000000, 0.0000000000000000000, 0.0000000000000000000 ) ) ;
#51 = PRESENTATION_STYLE_ASSIGNMENT (( #17 ) ) ;
#52 = DIRECTION ( 'NONE',  ( -0.0000000000000000000, -1.000000000000000000, 0.0000000000000000000 ) ) ;
#53 = COLOUR_RGB ( '',0.6392156862745097500, 0.4000000000000000200, 0.2078431372549019400 ) ;
#54 = CARTESIAN_POINT ( 'NONE',  ( 0.0000000000000000000, 0.5000000000000000000, 0.0000000000000000000 ) ) ;
#55 = DIRECTION ( 'NONE',  ( 0.0000000000000000000, 0.0000000000000000000, -1.000000000000000000 ) ) ;
#56 = DIRECTION ( 'NONE',  ( -0.0000000000000000000, -1.000000000000000000, 0.0000000000000000000 ) ) ;
#57 = LENGTH_MEASURE_WITH_UNIT ( LENGTH_MEASURE( 0.02539999999999999900 ), #23 );
#58 = CARTESIAN_POINT ( 'NONE',  ( 2.675853256136967000E-017, 0.0000000000000000000, 0.2185000000000000000 ) ) ;
#59 = CARTESIAN_POINT ( 'NONE',  ( 0.0000000000000000000, 0.06249999999999997900, -0.2185000000000000300 ) ) ;
#60 = SURFACE_STYLE_FILL_AREA ( #9 ) ;
#61 = AXIS2_PLACEMENT_3D ( 'NONE', #44, #41, #43 ) ;
#62 = CIRCLE ( 'NONE', #155, 0.2185000000000000300 ) ;
#63 = CARTESIAN_POINT ( 'NONE',  ( 0.0000000000000000000, 0.06249999999999997900, 0.0000000000000000000 ) ) ;
#64 = AXIS2_PLACEMENT_3D ( 'NONE', #40, #39, #38 ) ;
#65 = CIRCLE ( 'NONE', #98, 0.1562500000000000300 ) ;
#66 = AXIS2_PLACEMENT_3D ( 'NONE', #50, #47, #46 ) ;
#67 = VECTOR ( 'NONE', #49, 39.37007874015748100 ) ;
#68 = UNCERTAINTY_MEASURE_WITH_UNIT (LENGTH_MEASURE( 1.000000000000000100E-005 ), #22, 'distance_accuracy_value', 'NONE');
#69 = DIRECTION ( 'NONE',  ( -0.0000000000000000000, -1.000000000000000000, 0.0000000000000000000 ) ) ;
#70 = CIRCLE ( 'NONE', #156, 0.1562500000000001100 ) ;
#71 = LINE ( 'NONE', #45, #67 ) ;
#72 = CIRCLE ( 'NONE', #64, 0.2185000000000000300 ) ;
#73 = CARTESIAN_POINT ( 'NONE',  ( 0.0000000000000000000, 0.0000000000000000000, -0.09375000000000004200 ) ) ;
#74 = AXIS2_PLACEMENT_3D ( 'NONE', #99, #109, #108 ) ;
#75 = DIRECTION ( 'NONE',  ( -0.0000000000000000000, -1.000000000000000000, 0.0000000000000000000 ) ) ;
#76 = CIRCLE ( 'NONE', #61, 0.09375000000000006900 ) ;
#77 = VECTOR ( 'NONE', #52, 39.37007874015748100 ) ;
#78 = LINE ( 'NONE', #73, #77 ) ;
#79 = VECTOR ( 'NONE', #69, 39.37007874015748100 ) ;
#80 = DIRECTION ( 'NONE',  ( -0.0000000000000000000, -1.000000000000000000, 0.0000000000000000000 ) ) ;
#81 = LINE ( 'NONE', #86, #79 ) ;
#82 = CIRCLE ( 'NONE', #87, 0.09375000000000001400 ) ;
#83 = VECTOR ( 'NONE', #84, 39.37007874015748100 ) ;
#84 = DIRECTION ( 'NONE',  ( -0.0000000000000000000, -1.000000000000000000, 0.0000000000000000000 ) ) ;
#85 = AXIS2_PLACEMENT_3D ( 'NONE', #63, #75, #92 ) ;
#86 = CARTESIAN_POINT ( 'NONE',  ( 1.148106374200644200E-017, 0.0000000000000000000, 0.09375000000000004200 ) ) ;
#87 = AXIS2_PLACEMENT_3D ( 'NONE', #54, #56, #55 ) ;
#88 = CIRCLE ( 'NONE', #113, 0.1562500000000001100 ) ;
#89 = VECTOR ( 'NONE', #80, 39.37007874015748100 ) ;
#90 = LINE ( 'NONE', #128, #89 ) ;
#91 =( LENGTH_UNIT ( ) NAMED_UNIT ( * ) SI_UNIT ( $, .METRE. ) );
#92 = DIRECTION ( 'NONE',  ( 0.0000000000000000000, 0.0000000000000000000, -1.000000000000000000 ) ) ;
#93 = CARTESIAN_POINT ( 'NONE',  ( 0.0000000000000000000, 0.0000000000000000000, -0.09375000000000006900 ) ) ;
#94 = CARTESIAN_POINT ( 'NONE',  ( 0.0000000000000000000, 0.5000000000000000000, -0.09375000000000001400 ) ) ;
#95 = CIRCLE ( 'NONE', #85, 0.2185000000000000300 ) ;
#96 = LINE ( 'NONE', #179, #83 ) ;
#97 = VECTOR ( 'NONE', #158, 39.37007874015748100 ) ;
#98 = AXIS2_PLACEMENT_3D ( 'NONE', #31, #29, #28 ) ;
#99 = CARTESIAN_POINT ( 'NONE',  ( 0.0000000000000000000, 0.5000000000000000000, 0.0000000000000000000 ) ) ;
#100 = CIRCLE ( 'NONE', #74, 0.09375000000000001400 ) ;
#101 = CYLINDRICAL_SURFACE ( 'NONE', #145, 0.2185000000000000300 ) ;
#102 = CIRCLE ( 'NONE', #66, 0.09375000000000006900 ) ;
#103 = CYLINDRICAL_SURFACE ( 'NONE', #250, 0.1562500000000000800 ) ;
#104 = DIRECTION ( 'NONE',  ( 0.0000000000000000000, 0.0000000000000000000, -1.000000000000000000 ) ) ;
#105 = CIRCLE ( 'NONE', #232, 0.1562500000000000300 ) ;
#106 = CIRCLE ( 'NONE', #122, 0.2185000000000000300 ) ;
#107 = FACE_OUTER_BOUND ( 'NONE', #265, .T. ) ;
#108 = DIRECTION ( 'NONE',  ( 0.0000000000000000000, 0.0000000000000000000, -1.000000000000000000 ) ) ;
#109 = DIRECTION ( 'NONE',  ( -0.0000000000000000000, -1.000000000000000000, 0.0000000000000000000 ) ) ;
#110 = LINE ( 'NONE', #169, #97 ) ;
#111 = CARTESIAN_POINT ( 'NONE',  ( 1.148106374200644300E-017, 0.0000000000000000000, 0.09375000000000005600 ) ) ;
#112 = PRODUCT_RELATED_PRODUCT_CATEGORY ( 'part', '', ( #4 ) ) ;
#113 = AXIS2_PLACEMENT_3D ( 'NONE', #37, #36, #19 ) ;
#114 = LENGTH_MEASURE_WITH_UNIT ( LENGTH_MEASURE( 0.02539999999999999900 ), #193 );
#115 = AXIS2_PLACEMENT_3D ( 'NONE', #309, #312, #297 ) ;
#116 = MANIFOLD_SOLID_BREP ( 'Revolve1', #257 ) ;
#117 = AXIS2_PLACEMENT_3D ( 'NONE', #255, #303, #270 ) ;
#118 = STYLED_ITEM ( 'NONE', ( #142 ), #248 ) ;
#119 = FACE_OUTER_BOUND ( 'NONE', #282, .T. ) ;
#120 = FACE_BOUND ( 'NONE', #186, .T. ) ;
#121 = AXIS2_PLACEMENT_3D ( 'NONE', #276, #278, #261 ) ;
#122 = AXIS2_PLACEMENT_3D ( 'NONE', #170, #167, #160 ) ;
#123 = CYLINDRICAL_SURFACE ( 'NONE', #129, 0.2185000000000000300 ) ;
#124 = AXIS2_PLACEMENT_3D ( 'NONE', #234, #269, #247 ) ;
#125 = SURFACE_STYLE_FILL_AREA ( #198 ) ;
#126 = CYLINDRICAL_SURFACE ( 'NONE', #124, 0.09375000000000004200 ) ;
#127 = FACE_OUTER_BOUND ( 'NONE', #216, .T. ) ;
#128 = CARTESIAN_POINT ( 'NONE',  ( 1.913510623667740100E-017, 0.0000000000000000000, 0.1562500000000000800 ) ) ;
#129 = AXIS2_PLACEMENT_3D ( 'NONE', #271, #228, #267 ) ;
#130 = AXIS2_PLACEMENT_3D ( 'NONE', #237, #240, #219 ) ;
#131 = PRESENTATION_LAYER_ASSIGNMENT (  '', '', ( #118 ) ) ;
#132 = FACE_OUTER_BOUND ( 'NONE', #264, .T. ) ;
#133 = FACE_OUTER_BOUND ( 'NONE', #262, .T. ) ;
#134 = COLOUR_RGB ( '',0.6392156862745097500, 0.4000000000000000200, 0.2078431372549019400 ) ;
#135 = PRODUCT_DEFINITION_SHAPE ( 'NONE', 'NONE',  #148 ) ;
#136 = FACE_OUTER_BOUND ( 'NONE', #286, .T. ) ;
#137 = CYLINDRICAL_SURFACE ( 'NONE', #115, 0.1562500000000000800 ) ;
#138 = PRODUCT_DEFINITION_FORMATION_WITH_SPECIFIED_SOURCE ( 'ANY', '', #4, .NOT_KNOWN. ) ;
#139 = FACE_BOUND ( 'NONE', #279, .T. ) ;
#140 = FACE_BOUND ( 'NONE', #184, .T. ) ;
#141 =( GEOMETRIC_REPRESENTATION_CONTEXT ( 3 ) GLOBAL_UNCERTAINTY_ASSIGNED_CONTEXT ( ( #212 ) ) GLOBAL_UNIT_ASSIGNED_CONTEXT ( ( #203, #189, #190 ) ) REPRESENTATION_CONTEXT ( 'NONE', 'WORKASPACE' ) );
#142 = PRESENTATION_STYLE_ASSIGNMENT (( #205 ) ) ;
#143 = FACE_OUTER_BOUND ( 'NONE', #251, .T. ) ;
#144 = DIRECTION ( 'NONE',  ( 0.0000000000000000000, 0.0000000000000000000, -1.000000000000000000 ) ) ;
#145 = AXIS2_PLACEMENT_3D ( 'NONE', #188, #182, #177 ) ;
#146 = DIRECTION ( 'NONE',  ( -0.0000000000000000000, -1.000000000000000000, 0.0000000000000000000 ) ) ;
#147 = CARTESIAN_POINT ( 'NONE',  ( 0.0000000000000000000, 0.5000000000000000000, 0.0000000000000000000 ) ) ;
#148 = PRODUCT_DEFINITION ( 'UNKNOWN', '', #138, #196 ) ;
#149 = CARTESIAN_POINT ( 'NONE',  ( 0.0000000000000000000, 0.06249999999999997900, -0.1562500000000001100 ) ) ;
#150 = AXIS2_PLACEMENT_3D ( 'NONE', #30, #7, #6 ) ;
#151 = LENGTH_MEASURE_WITH_UNIT ( LENGTH_MEASURE( 0.02539999999999999900 ), #285 );
#152 = DIMENSIONAL_EXPONENTS ( 1.000000000000000000, 0.0000000000000000000, 0.0000000000000000000, 0.0000000000000000000, 0.0000000000000000000, 0.0000000000000000000, 0.0000000000000000000 ) ;
#153 =( GEOMETRIC_REPRESENTATION_CONTEXT ( 3 ) GLOBAL_UNCERTAINTY_ASSIGNED_CONTEXT ( ( #227 ) ) GLOBAL_UNIT_ASSIGNED_CONTEXT ( ( #15, #14, #11 ) ) REPRESENTATION_CONTEXT ( 'NONE', 'WORKASPACE' ) );
#154 = CARTESIAN_POINT ( 'NONE',  ( 2.675853256136967000E-017, 0.06249999999999997900, 0.2185000000000000000 ) ) ;
#155 = AXIS2_PLACEMENT_3D ( 'NONE', #27, #26, #25 ) ;
#156 = AXIS2_PLACEMENT_3D ( 'NONE', #35, #34, #33 ) ;
#157 = CYLINDRICAL_SURFACE ( 'NONE', #327, 0.09375000000000004200 ) ;
#158 = DIRECTION ( 'NONE',  ( -0.0000000000000000000, -1.000000000000000000, 0.0000000000000000000 ) ) ;
#159 = MECHANICAL_DESIGN_GEOMETRIC_PRESENTATION_REPRESENTATION (  '', ( #164 ), #153 ) ;
#160 = DIRECTION ( 'NONE',  ( 0.0000000000000000000, 0.0000000000000000000, -1.000000000000000000 ) ) ;
#161 = PRESENTATION_LAYER_ASSIGNMENT (  '', '', ( #164 ) ) ;
#162 = SURFACE_STYLE_FILL_AREA ( #335 ) ;
#163 = PRESENTATION_STYLE_ASSIGNMENT (( #284 ) ) ;
#164 = STYLED_ITEM ( 'NONE', ( #51 ), #217 ) ;
#165 = FACE_OUTER_BOUND ( 'NONE', #281, .T. ) ;
#166 = COLOUR_RGB ( '',0.6392156862745097500, 0.4000000000000000200, 0.2078431372549019400 ) ;
#167 = DIRECTION ( 'NONE',  ( -0.0000000000000000000, -1.000000000000000000, 0.0000000000000000000 ) ) ;
#168 = FACE_OUTER_BOUND ( 'NONE', #210, .T. ) ;
#169 = CARTESIAN_POINT ( 'NONE',  ( 0.0000000000000000000, 0.0000000000000000000, -0.2185000000000000300 ) ) ;
#170 = CARTESIAN_POINT ( 'NONE',  ( 0.0000000000000000000, 0.0000000000000000000, 0.0000000000000000000 ) ) ;
#171 = CARTESIAN_POINT ( 'NONE',  ( 1.913510623667740100E-017, 0.06249999999999997900, 0.1562500000000000800 ) ) ;
#172 = LENGTH_MEASURE_WITH_UNIT ( LENGTH_MEASURE( 0.02539999999999999900 ), #91 );
#173 = CARTESIAN_POINT ( 'NONE',  ( 0.0000000000000000000, 0.0000000000000000000, -0.2185000000000000300 ) ) ;
#174 = CARTESIAN_POINT ( 'NONE',  ( 0.0000000000000000000, 0.5000000000000000000, -0.1562500000000000300 ) ) ;
#175 = CARTESIAN_POINT ( 'NONE',  ( 1.148106374200643900E-017, 0.5000000000000000000, 0.09374999999999998600 ) ) ;
#176 = PRESENTATION_STYLE_ASSIGNMENT (( #339 ) ) ;
#177 = DIRECTION ( 'NONE',  ( 0.0000000000000000000, 0.0000000000000000000, -1.000000000000000000 ) ) ;
#178 = SURFACE_STYLE_FILL_AREA ( #322 ) ;
#179 = CARTESIAN_POINT ( 'NONE',  ( 2.675853256136967600E-017, 0.0000000000000000000, 0.2185000000000000300 ) ) ;
#180 = ORIENTED_EDGE ( 'NONE', *, *, #294, .F. ) ;
#181 = ORIENTED_EDGE ( 'NONE', *, *, #334, .F. ) ;
#182 = DIRECTION ( 'NONE',  ( -0.0000000000000000000, -1.000000000000000000, 0.0000000000000000000 ) ) ;
#183 = DIMENSIONAL_EXPONENTS ( 1.000000000000000000, 0.0000000000000000000, 0.0000000000000000000, 0.0000000000000000000, 0.0000000000000000000, 0.0000000000000000000, 0.0000000000000000000 ) ;
#184 = EDGE_LOOP ( 'NONE', ( #202, #204 ) ) ;
#185 = ORIENTED_EDGE ( 'NONE', *, *, #300, .F. ) ;
#186 = EDGE_LOOP ( 'NONE', ( #236, #238 ) ) ;
#187 = ORIENTED_EDGE ( 'NONE', *, *, #334, .T. ) ;
#188 = CARTESIAN_POINT ( 'NONE',  ( 0.0000000000000000000, 0.0000000000000000000, 0.0000000000000000000 ) ) ;
#189 =( NAMED_UNIT ( * ) PLANE_ANGLE_UNIT ( ) SI_UNIT ( $, .RADIAN. ) );
#190 =( NAMED_UNIT ( * ) SI_UNIT ( $, .STERADIAN. ) SOLID_ANGLE_UNIT ( ) );
#191 = DIMENSIONAL_EXPONENTS ( 1.000000000000000000, 0.0000000000000000000, 0.0000000000000000000, 0.0000000000000000000, 0.0000000000000000000, 0.0000000000000000000, 0.0000000000000000000 ) ;
#192 = ORIENTED_EDGE ( 'NONE', *, *, #329, .T. ) ;
#193 =( LENGTH_UNIT ( ) NAMED_UNIT ( * ) SI_UNIT ( $, .METRE. ) );
#194 = ORIENTED_EDGE ( 'NONE', *, *, #331, .F. ) ;
#195 = VERTEX_POINT ( 'NONE', #59 ) ;
#196 = PRODUCT_DEFINITION_CONTEXT ( 'detailed design', #8, 'design' ) ;
#197 = DIMENSIONAL_EXPONENTS ( 1.000000000000000000, 0.0000000000000000000, 0.0000000000000000000, 0.0000000000000000000, 0.0000000000000000000, 0.0000000000000000000, 0.0000000000000000000 ) ;
#198 = FILL_AREA_STYLE ('',( #224 ) ) ;
#199 = ORIENTED_EDGE ( 'NONE', *, *, #294, .T. ) ;
#200 = DIRECTION ( 'NONE',  ( -0.0000000000000000000, -1.000000000000000000, 0.0000000000000000000 ) ) ;
#201 = ORIENTED_EDGE ( 'NONE', *, *, #298, .T. ) ;
#202 = ORIENTED_EDGE ( 'NONE', *, *, #333, .T. ) ;
#203 =( CONVERSION_BASED_UNIT ( 'INCH', #114 ) LENGTH_UNIT ( ) NAMED_UNIT ( #183 ) );
#204 = ORIENTED_EDGE ( 'NONE', *, *, #331, .T. ) ;
#205 = SURFACE_STYLE_USAGE ( .BOTH. , #215 ) ;
#206 = DIMENSIONAL_EXPONENTS ( 1.000000000000000000, 0.0000000000000000000, 0.0000000000000000000, 0.0000000000000000000, 0.0000000000000000000, 0.0000000000000000000, 0.0000000000000000000 ) ;
#207 = DIRECTION ( 'NONE',  ( 0.0000000000000000000, 0.0000000000000000000, -1.000000000000000000 ) ) ;
#208 = VERTEX_POINT ( 'NONE', #111 ) ;
#209 = ORIENTED_EDGE ( 'NONE', *, *, #316, .F. ) ;
#210 = EDGE_LOOP ( 'NONE', ( #199, #254, #280, #266 ) ) ;
#211 = ORIENTED_EDGE ( 'NONE', *, *, #338, .F. ) ;
#212 = UNCERTAINTY_MEASURE_WITH_UNIT (LENGTH_MEASURE( 1.000000000000000100E-005 ), #203, 'distance_accuracy_value', 'NONE');
#213 = VERTEX_POINT ( 'NONE', #13 ) ;
#214 = ORIENTED_EDGE ( 'NONE', *, *, #315, .F. ) ;
#215 = SURFACE_SIDE_STYLE ('',( #125 ) ) ;
#216 = EDGE_LOOP ( 'NONE', ( #233, #235 ) ) ;
#217 = ADVANCED_BREP_SHAPE_REPRESENTATION ( 'am-0089 3-16'''''''' id Oillite Bushing', ( #116, #150 ), #256 ) ;
#218 = ADVANCED_FACE ( 'NONE', ( #165 ), #157, .F. ) ;
#219 = DIRECTION ( 'NONE',  ( 0.0000000000000000000, 0.0000000000000000000, -1.000000000000000000 ) ) ;
#220 = ORIENTED_EDGE ( 'NONE', *, *, #338, .T. ) ;
#221 = ADVANCED_FACE ( 'NONE', ( #168 ), #137, .T. ) ;
#222 = ORIENTED_EDGE ( 'NONE', *, *, #293, .T. ) ;
#223 = ORIENTED_EDGE ( 'NONE', *, *, #325, .F. ) ;
#224 = FILL_AREA_STYLE_COLOUR ( '', #134 ) ;
#225 = ADVANCED_FACE ( 'NONE', ( #140, #143 ), #242, .T. ) ;
#226 = CARTESIAN_POINT ( 'NONE',  ( 0.0000000000000000000, 0.0000000000000000000, 0.0000000000000000000 ) ) ;
#227 = UNCERTAINTY_MEASURE_WITH_UNIT (LENGTH_MEASURE( 1.000000000000000100E-005 ), #15, 'distance_accuracy_value', 'NONE');
#228 = DIRECTION ( 'NONE',  ( -0.0000000000000000000, -1.000000000000000000, 0.0000000000000000000 ) ) ;
#229 = PLANE ( 'NONE',  #130 ) ;
#230 = MECHANICAL_DESIGN_GEOMETRIC_PRESENTATION_REPRESENTATION (  '', ( #118 ), #141 ) ;
#231 = ADVANCED_FACE ( 'NONE', ( #139, #133 ), #272, .T. ) ;
#232 = AXIS2_PLACEMENT_3D ( 'NONE', #147, #146, #144 ) ;
#233 = ORIENTED_EDGE ( 'NONE', *, *, #283, .T. ) ;
#234 = CARTESIAN_POINT ( 'NONE',  ( 0.0000000000000000000, 0.0000000000000000000, 0.0000000000000000000 ) ) ;
#235 = ORIENTED_EDGE ( 'NONE', *, *, #325, .T. ) ;
#236 = ORIENTED_EDGE ( 'NONE', *, *, #323, .F. ) ;
#237 = CARTESIAN_POINT ( 'NONE',  ( 0.2185000000000000300, 0.0000000000000000000, 0.0000000000000000000 ) ) ;
#238 = ORIENTED_EDGE ( 'NONE', *, *, #324, .F. ) ;
#239 = ADVANCED_FACE ( 'NONE', ( #132 ), #126, .F. ) ;
#240 = DIRECTION ( 'NONE',  ( 0.0000000000000000000, -1.000000000000000000, 0.0000000000000000000 ) ) ;
#241 = ADVANCED_FACE ( 'NONE', ( #136 ), #123, .T. ) ;
#242 = PLANE ( 'NONE',  #117 ) ;
#243 = ADVANCED_FACE ( 'NONE', ( #127, #120 ), #229, .T. ) ;
#244 = ORIENTED_EDGE ( 'NONE', *, *, #319, .F. ) ;
#245 = ORIENTED_EDGE ( 'NONE', *, *, #298, .F. ) ;
#246 = ORIENTED_EDGE ( 'NONE', *, *, #321, .T. ) ;
#247 = DIRECTION ( 'NONE',  ( 0.0000000000000000000, 0.0000000000000000000, -1.000000000000000000 ) ) ;
#248 = ADVANCED_FACE ( 'NONE', ( #119 ), #103, .T. ) ;
#249 = ORIENTED_EDGE ( 'NONE', *, *, #323, .T. ) ;
#250 = AXIS2_PLACEMENT_3D ( 'NONE', #226, #200, #207 ) ;
#251 = EDGE_LOOP ( 'NONE', ( #209, #211 ) ) ;
#252 = ADVANCED_FACE ( 'NONE', ( #107 ), #101, .T. ) ;
#253 = ORIENTED_EDGE ( 'NONE', *, *, #321, .F. ) ;
#254 = ORIENTED_EDGE ( 'NONE', *, *, #300, .T. ) ;
#255 = CARTESIAN_POINT ( 'NONE',  ( 0.1562500000000001100, 0.06249999999999997900, 0.0000000000000000000 ) ) ;
#256 =( GEOMETRIC_REPRESENTATION_CONTEXT ( 3 ) GLOBAL_UNCERTAINTY_ASSIGNED_CONTEXT ( ( #68 ) ) GLOBAL_UNIT_ASSIGNED_CONTEXT ( ( #22, #21, #10 ) ) REPRESENTATION_CONTEXT ( 'NONE', 'WORKASPACE' ) );
#257 = CLOSED_SHELL ( 'NONE', ( #218, #252, #221, #231, #248, #225, #241, #243, #239 ) ) ;
#258 = VERTEX_POINT ( 'NONE', #173 ) ;
#259 = VERTEX_POINT ( 'NONE', #171 ) ;
#260 = ORIENTED_EDGE ( 'NONE', *, *, #293, .F. ) ;
#261 = DIRECTION ( 'NONE',  ( 0.0000000000000000000, 0.0000000000000000000, 1.000000000000000000 ) ) ;
#262 = EDGE_LOOP ( 'NONE', ( #180, #181 ) ) ;
#263 = ORIENTED_EDGE ( 'NONE', *, *, #320, .F. ) ;
#264 = EDGE_LOOP ( 'NONE', ( #244, #245, #246, #249 ) ) ;
#265 = EDGE_LOOP ( 'NONE', ( #12, #274, #273, #260 ) ) ;
#266 = ORIENTED_EDGE ( 'NONE', *, *, #329, .F. ) ;
#267 = DIRECTION ( 'NONE',  ( 0.0000000000000000000, 0.0000000000000000000, -1.000000000000000000 ) ) ;
#268 = VERTEX_POINT ( 'NONE', #175 ) ;
#269 = DIRECTION ( 'NONE',  ( -0.0000000000000000000, -1.000000000000000000, 0.0000000000000000000 ) ) ;
#270 = DIRECTION ( 'NONE',  ( 0.0000000000000000000, 0.0000000000000000000, 1.000000000000000000 ) ) ;
#271 = CARTESIAN_POINT ( 'NONE',  ( 0.0000000000000000000, 0.0000000000000000000, 0.0000000000000000000 ) ) ;
#272 = PLANE ( 'NONE',  #121 ) ;
#273 = ORIENTED_EDGE ( 'NONE', *, *, #283, .F. ) ;
#274 = ORIENTED_EDGE ( 'NONE', *, *, #315, .T. ) ;
#275 = ORIENTED_EDGE ( 'NONE', *, *, #320, .T. ) ;
#276 = CARTESIAN_POINT ( 'NONE',  ( 0.09375000000000001400, 0.5000000000000000000, -8.537024980200822600E-018 ) ) ;
#277 = ORIENTED_EDGE ( 'NONE', *, *, #319, .T. ) ;
#278 = DIRECTION ( 'NONE',  ( 0.0000000000000000000, 1.000000000000000000, 0.0000000000000000000 ) ) ;
#279 = EDGE_LOOP ( 'NONE', ( #201, #275 ) ) ;
#280 = ORIENTED_EDGE ( 'NONE', *, *, #333, .F. ) ;
#281 = EDGE_LOOP ( 'NONE', ( #263, #277, #291, #253 ) ) ;
#282 = EDGE_LOOP ( 'NONE', ( #185, #187, #192, #194 ) ) ;
#283 = EDGE_CURVE ( 'NONE', #258, #306, #106, .T. ) ;
#284 = SURFACE_STYLE_USAGE ( .BOTH. , #292 ) ;
#285 =( LENGTH_UNIT ( ) NAMED_UNIT ( * ) SI_UNIT ( $, .METRE. ) );
#286 = EDGE_LOOP ( 'NONE', ( #214, #220, #222, #223 ) ) ;
#287 = VERTEX_POINT ( 'NONE', #174 ) ;
#288 = VERTEX_POINT ( 'NONE', #154 ) ;
#289 =( CONVERSION_BASED_UNIT ( 'INCH', #151 ) LENGTH_UNIT ( ) NAMED_UNIT ( #191 ) );
#290 =( NAMED_UNIT ( * ) SI_UNIT ( $, .STERADIAN. ) SOLID_ANGLE_UNIT ( ) );
#291 = ORIENTED_EDGE ( 'NONE', *, *, #324, .T. ) ;
#292 = SURFACE_SIDE_STYLE ('',( #162 ) ) ;
#293 = EDGE_CURVE ( 'NONE', #195, #258, #110, .T. ) ;
#294 = EDGE_CURVE ( 'NONE', #287, #213, #105, .T. ) ;
#295 =( GEOMETRIC_REPRESENTATION_CONTEXT ( 3 ) GLOBAL_UNCERTAINTY_ASSIGNED_CONTEXT ( ( #314 ) ) GLOBAL_UNIT_ASSIGNED_CONTEXT ( ( #289, #301, #290 ) ) REPRESENTATION_CONTEXT ( 'NONE', 'WORKASPACE' ) );
#296 = VERTEX_POINT ( 'NONE', #149 ) ;
#297 = DIRECTION ( 'NONE',  ( 0.0000000000000000000, 0.0000000000000000000, -1.000000000000000000 ) ) ;
#298 = EDGE_CURVE ( 'NONE', #317, #268, #100, .T. ) ;
#299 = VERTEX_POINT ( 'NONE', #93 ) ;
#300 = EDGE_CURVE ( 'NONE', #213, #259, #90, .T. ) ;
#301 =( NAMED_UNIT ( * ) PLANE_ANGLE_UNIT ( ) SI_UNIT ( $, .RADIAN. ) );
#302 = STYLED_ITEM ( 'NONE', ( #176 ), #116 ) ;
#303 = DIRECTION ( 'NONE',  ( 0.0000000000000000000, 1.000000000000000000, 0.0000000000000000000 ) ) ;
#304 = MECHANICAL_DESIGN_GEOMETRIC_PRESENTATION_REPRESENTATION (  '', ( #302 ), #305 ) ;
#305 =( GEOMETRIC_REPRESENTATION_CONTEXT ( 3 ) GLOBAL_UNCERTAINTY_ASSIGNED_CONTEXT ( ( #24 ) ) GLOBAL_UNIT_ASSIGNED_CONTEXT ( ( #328, #307, #330 ) ) REPRESENTATION_CONTEXT ( 'NONE', 'WORKASPACE' ) );
#306 = VERTEX_POINT ( 'NONE', #58 ) ;
#307 =( NAMED_UNIT ( * ) PLANE_ANGLE_UNIT ( ) SI_UNIT ( $, .RADIAN. ) );
#308 = PRESENTATION_LAYER_ASSIGNMENT (  '', '', ( #302 ) ) ;
#309 = CARTESIAN_POINT ( 'NONE',  ( 0.0000000000000000000, 0.0000000000000000000, 0.0000000000000000000 ) ) ;
#310 = PRESENTATION_LAYER_ASSIGNMENT (  '', '', ( #311 ) ) ;
#311 = STYLED_ITEM ( 'NONE', ( #163 ), #221 ) ;
#312 = DIRECTION ( 'NONE',  ( -0.0000000000000000000, -1.000000000000000000, 0.0000000000000000000 ) ) ;
#313 = FILL_AREA_STYLE_COLOUR ( '', #166 ) ;
#314 = UNCERTAINTY_MEASURE_WITH_UNIT (LENGTH_MEASURE( 1.000000000000000100E-005 ), #289, 'distance_accuracy_value', 'NONE');
#315 = EDGE_CURVE ( 'NONE', #288, #306, #96, .T. ) ;
#316 = EDGE_CURVE ( 'NONE', #195, #288, #95, .T. ) ;
#317 = VERTEX_POINT ( 'NONE', #94 ) ;
#318 = COLOUR_RGB ( '',0.6392156862745097500, 0.4000000000000000200, 0.2078431372549019400 ) ;
#319 = EDGE_CURVE ( 'NONE', #268, #208, #81, .T. ) ;
#320 = EDGE_CURVE ( 'NONE', #268, #317, #82, .T. ) ;
#321 = EDGE_CURVE ( 'NONE', #317, #299, #78, .T. ) ;
#322 = FILL_AREA_STYLE ('',( #336 ) ) ;
#323 = EDGE_CURVE ( 'NONE', #299, #208, #102, .T. ) ;
#324 = EDGE_CURVE ( 'NONE', #208, #299, #76, .T. ) ;
#325 = EDGE_CURVE ( 'NONE', #306, #258, #72, .T. ) ;
#326 = CARTESIAN_POINT ( 'NONE',  ( 0.0000000000000000000, 0.0000000000000000000, 0.0000000000000000000 ) ) ;
#327 = AXIS2_PLACEMENT_3D ( 'NONE', #326, #332, #104 ) ;
#328 =( CONVERSION_BASED_UNIT ( 'INCH', #172 ) LENGTH_UNIT ( ) NAMED_UNIT ( #197 ) );
#329 = EDGE_CURVE ( 'NONE', #287, #296, #71, .T. ) ;
#330 =( NAMED_UNIT ( * ) SI_UNIT ( $, .STERADIAN. ) SOLID_ANGLE_UNIT ( ) );
#331 = EDGE_CURVE ( 'NONE', #259, #296, #88, .T. ) ;
#332 = DIRECTION ( 'NONE',  ( -0.0000000000000000000, -1.000000000000000000, 0.0000000000000000000 ) ) ;
#333 = EDGE_CURVE ( 'NONE', #296, #259, #70, .T. ) ;
#334 = EDGE_CURVE ( 'NONE', #213, #287, #65, .T. ) ;
#335 = FILL_AREA_STYLE ('',( #313 ) ) ;
#336 = FILL_AREA_STYLE_COLOUR ( '', #318 ) ;
#337 = SURFACE_SIDE_STYLE ('',( #178 ) ) ;
#338 = EDGE_CURVE ( 'NONE', #288, #195, #62, .T. ) ;
#339 = SURFACE_STYLE_USAGE ( .BOTH. , #337 ) ;
ENDSEC;
END-ISO-10303-21;
