ISO-10303-21;
HEADER;
FILE_DESCRIPTION (( 'STEP AP214' ),
    '1' );
FILE_NAME ('am-0181 0.5'''' id Bearing, Shielded (R8ZZ).STEP',
    '2014-08-20T20:43:24',
    ( '' ),
    ( '' ),
    'SwSTEP 2.0',
    'SolidWorks 2014',
    '' );
FILE_SCHEMA (( 'AUTOMOTIVE_DESIGN' ));
ENDSEC;

DATA;
#1 = DIRECTION ( 'NONE',  ( -0.0000000000000000000, -1.000000000000000000, -0.0000000000000000000 ) ) ;
#2 = AXIS2_PLACEMENT_3D ( 'NONE', #45, #191, #67 ) ;
#3 = ORIENTED_EDGE ( 'NONE', *, *, #103, .F. ) ;
#4 = EDGE_LOOP ( 'NONE', ( #23, #289, #274, #28 ) ) ;
#5 = ORIENTED_EDGE ( 'NONE', *, *, #245, .T. ) ;
#6 = CARTESIAN_POINT ( 'NONE',  ( 0.0000000000000000000, 0.3019999999999999900, 0.5525000000000001000 ) ) ;
#7 = DIRECTION ( 'NONE',  ( 0.0000000000000000000, 0.0000000000000000000, -1.000000000000000000 ) ) ;
#8 = ORIENTED_EDGE ( 'NONE', *, *, #114, .F. ) ;
#9 = ORIENTED_EDGE ( 'NONE', *, *, #75, .T. ) ;
#10 = ORIENTED_EDGE ( 'NONE', *, *, #43, .F. ) ;
#11 = FILL_AREA_STYLE_COLOUR ( '', #208 ) ;
#12 = AXIS2_PLACEMENT_3D ( 'NONE', #217, #87, #246 ) ;
#13 = EDGE_LOOP ( 'NONE', ( #317, #37, #8, #311 ) ) ;
#14 =( CONVERSION_BASED_UNIT ( 'INCH', #93 ) LENGTH_UNIT ( ) NAMED_UNIT ( #130 ) );
#15 = ORIENTED_EDGE ( 'NONE', *, *, #264, .F. ) ;
#16 = ORIENTED_EDGE ( 'NONE', *, *, #285, .F. ) ;
#17 = ORIENTED_EDGE ( 'NONE', *, *, #159, .T. ) ;
#18 = EDGE_LOOP ( 'NONE', ( #296, #314, #35, #5 ) ) ;
#19 = ADVANCED_FACE ( 'NONE', ( #50 ), #241, .F. ) ;
#20 = EDGE_CURVE ( 'NONE', #303, #269, #244, .T. ) ;
#21 = ORIENTED_EDGE ( 'NONE', *, *, #43, .T. ) ;
#22 = ORIENTED_EDGE ( 'NONE', *, *, #306, .F. ) ;
#23 = ORIENTED_EDGE ( 'NONE', *, *, #59, .T. ) ;
#24 = ADVANCED_BREP_SHAPE_REPRESENTATION ( 'am-0181 0.5'''''''' id Bearing, Shielded (R8ZZ)', ( #160, #188 ), #77 ) ;
#25 = AXIS2_PLACEMENT_3D ( 'NONE', #81, #238, #101 ) ;
#26 = EDGE_LOOP ( 'NONE', ( #313, #40 ) ) ;
#27 = ORIENTED_EDGE ( 'NONE', *, *, #20, .T. ) ;
#28 = ORIENTED_EDGE ( 'NONE', *, *, #206, .F. ) ;
#29 = ORIENTED_EDGE ( 'NONE', *, *, #20, .F. ) ;
#30 = DIRECTION ( 'NONE',  ( 0.0000000000000000000, 0.0000000000000000000, -1.000000000000000000 ) ) ;
#31 = DIRECTION ( 'NONE',  ( 0.0000000000000000000, 0.0000000000000000000, -1.000000000000000000 ) ) ;
#32 = CARTESIAN_POINT ( 'NONE',  ( 0.0000000000000000000, 0.0000000000000000000, -0.5525000000000001000 ) ) ;
#33 = EDGE_LOOP ( 'NONE', ( #27, #291 ) ) ;
#34 = ORIENTED_EDGE ( 'NONE', *, *, #137, .T. ) ;
#35 = ORIENTED_EDGE ( 'NONE', *, *, #206, .T. ) ;
#36 = AXIS2_PLACEMENT_3D ( 'NONE', #133, #165, #31 ) ;
#37 = ORIENTED_EDGE ( 'NONE', *, *, #103, .T. ) ;
#38 = EDGE_LOOP ( 'NONE', ( #3, #257, #39, #15 ) ) ;
#39 = ORIENTED_EDGE ( 'NONE', *, *, #123, .T. ) ;
#40 = ORIENTED_EDGE ( 'NONE', *, *, #264, .T. ) ;
#41 = DIRECTION ( 'NONE',  ( 0.0000000000000000000, 0.0000000000000000000, 1.000000000000000000 ) ) ;
#42 = ORIENTED_EDGE ( 'NONE', *, *, #137, .F. ) ;
#43 = EDGE_CURVE ( 'NONE', #287, #303, #251, .T. ) ;
#44 = EDGE_LOOP ( 'NONE', ( #16, #292 ) ) ;
#45 = CARTESIAN_POINT ( 'NONE',  ( 0.0000000000000000000, 0.3120000000000000000, 0.0000000000000000000 ) ) ;
#46 = CARTESIAN_POINT ( 'NONE',  ( 0.0000000000000000000, 0.01000000000000000000, -0.5525000000000001000 ) ) ;
#47 =( CONVERSION_BASED_UNIT ( 'INCH', #115 ) LENGTH_UNIT ( ) NAMED_UNIT ( #180 ) );
#48 = DIRECTION ( 'NONE',  ( -0.0000000000000000000, -1.000000000000000000, -0.0000000000000000000 ) ) ;
#49 =( NAMED_UNIT ( * ) SI_UNIT ( $, .STERADIAN. ) SOLID_ANGLE_UNIT ( ) );
#50 = FACE_OUTER_BOUND ( 'NONE', #310, .T. ) ;
#51 = CLOSED_SHELL ( 'NONE', ( #155, #73, #284, #178, #227, #255, #19, #54, #94, #129 ) ) ;
#52 = AXIS2_PLACEMENT_3D ( 'NONE', #57, #136, #97 ) ;
#53 = ORIENTED_EDGE ( 'NONE', *, *, #159, .F. ) ;
#54 = ADVANCED_FACE ( 'NONE', ( #254, #240 ), #145, .T. ) ;
#55 = AXIS2_PLACEMENT_3D ( 'NONE', #122, #307, #147 ) ;
#56 = CARTESIAN_POINT ( 'NONE',  ( 0.0000000000000000000, 0.3019999999999999900, 0.0000000000000000000 ) ) ;
#57 = CARTESIAN_POINT ( 'NONE',  ( 0.0000000000000000000, 0.0000000000000000000, 0.0000000000000000000 ) ) ;
#58 = CARTESIAN_POINT ( 'NONE',  ( 6.888638245203861900E-017, 0.3019999999999999900, 0.5625000000000001100 ) ) ;
#59 = EDGE_CURVE ( 'NONE', #325, #287, #231, .T. ) ;
#60 = ORIENTED_EDGE ( 'NONE', *, *, #179, .F. ) ;
#61 = CARTESIAN_POINT ( 'NONE',  ( 0.0000000000000000000, 7.582401355855259500E-033, 0.0000000000000000000 ) ) ;
#62 = CARTESIAN_POINT ( 'NONE',  ( 0.0000000000000000000, 0.0000000000000000000, -0.5625000000000001100 ) ) ;
#63 = AXIS2_PLACEMENT_3D ( 'NONE', #124, #308, #150 ) ;
#64 = CARTESIAN_POINT ( 'NONE',  ( 0.2500000000000000000, 0.3120000000000000000, 0.0000000000000000000 ) ) ;
#65 = DIRECTION ( 'NONE',  ( 0.0000000000000000000, -0.0000000000000000000, 1.000000000000000000 ) ) ;
#66 = DIRECTION ( 'NONE',  ( 0.0000000000000000000, 1.000000000000000000, 0.0000000000000000000 ) ) ;
#67 = DIRECTION ( 'NONE',  ( 0.0000000000000000000, 0.0000000000000000000, -1.000000000000000000 ) ) ;
#68 = DIRECTION ( 'NONE',  ( 0.0000000000000000000, 0.0000000000000000000, 1.000000000000000000 ) ) ;
#69 =( NAMED_UNIT ( * ) SI_UNIT ( $, .STERADIAN. ) SOLID_ANGLE_UNIT ( ) );
#70 = SURFACE_SIDE_STYLE ('',( #197 ) ) ;
#71 = AXIS2_PLACEMENT_3D ( 'NONE', #46, #192, #68 ) ;
#72 = DIRECTION ( 'NONE',  ( 0.0000000000000000000, 0.0000000000000000000, 1.000000000000000000 ) ) ;
#73 = ADVANCED_FACE ( 'NONE', ( #230 ), #237, .T. ) ;
#74 = ORIENTED_EDGE ( 'NONE', *, *, #228, .F. ) ;
#75 = EDGE_CURVE ( 'NONE', #325, #269, #229, .T. ) ;
#76 = SHAPE_DEFINITION_REPRESENTATION ( #272, #24 ) ;
#77 =( GEOMETRIC_REPRESENTATION_CONTEXT ( 3 ) GLOBAL_UNCERTAINTY_ASSIGNED_CONTEXT ( ( #277 ) ) GLOBAL_UNIT_ASSIGNED_CONTEXT ( ( #47, #194, #69 ) ) REPRESENTATION_CONTEXT ( 'NONE', 'WORKASPACE' ) );
#78 = CARTESIAN_POINT ( 'NONE',  ( 6.766173565289126900E-017, 0.3019999999999999900, -0.5525000000000001000 ) ) ;
#79 = DIRECTION ( 'NONE',  ( -0.0000000000000000000, -1.000000000000000000, -0.0000000000000000000 ) ) ;
#80 = CARTESIAN_POINT ( 'NONE',  ( 6.888638245203861900E-017, 0.01000000000000000000, 0.5625000000000001100 ) ) ;
#81 = CARTESIAN_POINT ( 'NONE',  ( 0.0000000000000000000, 7.582401355855259500E-033, 0.0000000000000000000 ) ) ;
#82 = CARTESIAN_POINT ( 'NONE',  ( 0.0000000000000000000, 0.0000000000000000000, 0.0000000000000000000 ) ) ;
#83 = UNCERTAINTY_MEASURE_WITH_UNIT (LENGTH_MEASURE( 1.000000000000000100E-005 ), #14, 'distance_accuracy_value', 'NONE');
#84 = AXIS2_PLACEMENT_3D ( 'NONE', #248, #109, #278 ) ;
#85 = DIRECTION ( 'NONE',  ( 0.0000000000000000000, 0.0000000000000000000, -1.000000000000000000 ) ) ;
#86 = DIRECTION ( 'NONE',  ( -0.0000000000000000000, -1.000000000000000000, -0.0000000000000000000 ) ) ;
#87 = DIRECTION ( 'NONE',  ( 1.000000000000000000, 0.0000000000000000000, -1.224646799147353200E-016 ) ) ;
#88 = EDGE_CURVE ( 'NONE', #283, #288, #249, .T. ) ;
#89 = DIRECTION ( 'NONE',  ( 0.0000000000000000000, 1.000000000000000000, 0.0000000000000000000 ) ) ;
#90 = APPLICATION_PROTOCOL_DEFINITION ( 'draft international standard', 'automotive_design', 1998, #110 ) ;
#91 =( LENGTH_UNIT ( ) NAMED_UNIT ( * ) SI_UNIT ( $, .METRE. ) );
#92 = PRODUCT_CONTEXT ( 'NONE', #110, 'mechanical' ) ;
#93 = LENGTH_MEASURE_WITH_UNIT ( LENGTH_MEASURE( 0.02539999999999999900 ), #151 );
#94 = ADVANCED_FACE ( 'NONE', ( #225 ), #219, .T. ) ;
#95 = AXIS2_PLACEMENT_3D ( 'NONE', #56, #66, #173 ) ;
#96 = DIRECTION ( 'NONE',  ( 1.224646799147354400E-016, 0.0000000000000000000, -1.000000000000000000 ) ) ;
#97 = DIRECTION ( 'NONE',  ( 0.0000000000000000000, 0.0000000000000000000, -1.000000000000000000 ) ) ;
#98 = DIRECTION ( 'NONE',  ( -0.0000000000000000000, -1.000000000000000000, -0.0000000000000000000 ) ) ;
#99 = PRODUCT_DEFINITION_CONTEXT ( 'detailed design', #252, 'design' ) ;
#100 = PRESENTATION_STYLE_ASSIGNMENT (( #309 ) ) ;
#101 = DIRECTION ( 'NONE',  ( 0.0000000000000000000, 0.0000000000000000000, -1.000000000000000000 ) ) ;
#102 = SURFACE_STYLE_FILL_AREA ( #280 ) ;
#103 = EDGE_CURVE ( 'NONE', #283, #301, #218, .T. ) ;
#104 = COLOUR_RGB ( '',1.000000000000000000, 0.9490196078431372100, 0.9098039215686274400 ) ;
#105 = DIRECTION ( 'NONE',  ( 0.0000000000000000000, 0.0000000000000000000, -1.000000000000000000 ) ) ;
#106 = CARTESIAN_POINT ( 'NONE',  ( 6.888638245203861900E-017, 0.0000000000000000000, 0.5625000000000001100 ) ) ;
#107 = STYLED_ITEM ( 'NONE', ( #100 ), #24 ) ;
#108 = CARTESIAN_POINT ( 'NONE',  ( 0.0000000000000000000, 0.3120000000000000000, 0.0000000000000000000 ) ) ;
#109 = DIRECTION ( 'NONE',  ( -0.0000000000000000000, -1.000000000000000000, -0.0000000000000000000 ) ) ;
#110 = APPLICATION_CONTEXT ( 'automotive_design' ) ;
#111 =( NAMED_UNIT ( * ) PLANE_ANGLE_UNIT ( ) SI_UNIT ( $, .RADIAN. ) );
#112 = STYLED_ITEM ( 'NONE', ( #193 ), #160 ) ;
#113 = APPLICATION_PROTOCOL_DEFINITION ( 'draft international standard', 'automotive_design', 1998, #252 ) ;
#114 = EDGE_CURVE ( 'NONE', #266, #301, #224, .T. ) ;
#115 = LENGTH_MEASURE_WITH_UNIT ( LENGTH_MEASURE( 0.02539999999999999900 ), #175 );
#116 = PRESENTATION_LAYER_ASSIGNMENT (  '', '', ( #107 ) ) ;
#117 = DIRECTION ( 'NONE',  ( -0.0000000000000000000, -1.000000000000000000, -0.0000000000000000000 ) ) ;
#118 = PRODUCT ( 'am-0181 0.5'''''''' id Bearing, Shielded (R8ZZ)', 'am-0181 0.5'''''''' id Bearing, Shielded (R8ZZ)', '', ( #92 ) ) ;
#119 = CARTESIAN_POINT ( 'NONE',  ( 0.0000000000000000000, 0.01000000000000000000, 0.0000000000000000000 ) ) ;
#120 = AXIS2_PLACEMENT_3D ( 'NONE', #221, #89, #125 ) ;
#121 = DIRECTION ( 'NONE',  ( 0.0000000000000000000, 0.0000000000000000000, 1.000000000000000000 ) ) ;
#122 = CARTESIAN_POINT ( 'NONE',  ( 0.0000000000000000000, 0.0000000000000000000, 0.0000000000000000000 ) ) ;
#123 = EDGE_CURVE ( 'NONE', #288, #266, #216, .T. ) ;
#124 = CARTESIAN_POINT ( 'NONE',  ( 0.0000000000000000000, 0.3120000000000000000, 0.0000000000000000000 ) ) ;
#125 = DIRECTION ( 'NONE',  ( 0.0000000000000000000, 0.0000000000000000000, 1.000000000000000000 ) ) ;
#126 = SURFACE_SIDE_STYLE ('',( #102 ) ) ;
#127 = MECHANICAL_DESIGN_GEOMETRIC_PRESENTATION_REPRESENTATION (  '', ( #107 ), #143 ) ;
#128 = CYLINDRICAL_SURFACE ( 'NONE', #52, 0.2500000000000000000 ) ;
#129 = ADVANCED_FACE ( 'NONE', ( #215 ), #210, .T. ) ;
#130 = DIMENSIONAL_EXPONENTS ( 1.000000000000000000, 0.0000000000000000000, 0.0000000000000000000, 0.0000000000000000000, 0.0000000000000000000, 0.0000000000000000000, 0.0000000000000000000 ) ;
#131 = CIRCLE ( 'NONE', #25, 0.2500000000000000600 ) ;
#132 = PRESENTATION_LAYER_ASSIGNMENT (  '', '', ( #112 ) ) ;
#133 = CARTESIAN_POINT ( 'NONE',  ( 0.0000000000000000000, 0.01000000000000000000, 0.0000000000000000000 ) ) ;
#134 = DIRECTION ( 'NONE',  ( 0.0000000000000000000, 1.000000000000000000, 0.0000000000000000000 ) ) ;
#135 = DIRECTION ( 'NONE',  ( 0.0000000000000000000, 0.0000000000000000000, -1.000000000000000000 ) ) ;
#136 = DIRECTION ( 'NONE',  ( -0.0000000000000000000, -1.000000000000000000, -0.0000000000000000000 ) ) ;
#137 = EDGE_CURVE ( 'NONE', #326, #298, #209, .T. ) ;
#138 = CIRCLE ( 'NONE', #63, 0.5525000000000001000 ) ;
#139 = FACE_OUTER_BOUND ( 'NONE', #258, .T. ) ;
#140 = FACE_BOUND ( 'NONE', #44, .T. ) ;
#141 = CARTESIAN_POINT ( 'NONE',  ( 0.0000000000000000000, 0.0000000000000000000, -0.2500000000000000000 ) ) ;
#142 = CIRCLE ( 'NONE', #2, 0.2500000000000000000 ) ;
#143 =( GEOMETRIC_REPRESENTATION_CONTEXT ( 3 ) GLOBAL_UNCERTAINTY_ASSIGNED_CONTEXT ( ( #83 ) ) GLOBAL_UNIT_ASSIGNED_CONTEXT ( ( #14, #177, #49 ) ) REPRESENTATION_CONTEXT ( 'NONE', 'WORKASPACE' ) );
#144 = CYLINDRICAL_SURFACE ( 'NONE', #253, 0.5625000000000001100 ) ;
#145 = PLANE ( 'NONE',  #256 ) ;
#146 = CIRCLE ( 'NONE', #196, 0.5625000000000001100 ) ;
#147 = DIRECTION ( 'NONE',  ( 0.0000000000000000000, 0.0000000000000000000, -1.000000000000000000 ) ) ;
#148 = CIRCLE ( 'NONE', #290, 0.5525000000000001000 ) ;
#149 = FACE_OUTER_BOUND ( 'NONE', #26, .T. ) ;
#150 = DIRECTION ( 'NONE',  ( 0.0000000000000000000, 0.0000000000000000000, 1.000000000000000000 ) ) ;
#151 =( LENGTH_UNIT ( ) NAMED_UNIT ( * ) SI_UNIT ( $, .METRE. ) );
#152 = MECHANICAL_DESIGN_GEOMETRIC_PRESENTATION_REPRESENTATION (  '', ( #112 ), #171 ) ;
#153 = VECTOR ( 'NONE', #86, 39.37007874015748100 ) ;
#154 = CIRCLE ( 'NONE', #213, 0.5625000000000001100 ) ;
#155 = ADVANCED_FACE ( 'NONE', ( #214 ), #203, .T. ) ;
#156 = VECTOR ( 'NONE', #187, 39.37007874015748100 ) ;
#157 = LINE ( 'NONE', #62, #153 ) ;
#158 = CYLINDRICAL_SURFACE ( 'NONE', #232, 0.5625000000000001100 ) ;
#159 = EDGE_CURVE ( 'NONE', #326, #316, #201, .T. ) ;
#160 = MANIFOLD_SOLID_BREP ( 'Fillet1', #51 ) ;
#161 = FACE_OUTER_BOUND ( 'NONE', #18, .T. ) ;
#162 = VECTOR ( 'NONE', #1, 39.37007874015748100 ) ;
#163 = DIRECTION ( 'NONE',  ( -0.0000000000000000000, -1.000000000000000000, -0.0000000000000000000 ) ) ;
#164 = PLANE ( 'NONE',  #312 ) ;
#165 = DIRECTION ( 'NONE',  ( -0.0000000000000000000, -1.000000000000000000, -0.0000000000000000000 ) ) ;
#166 = DIRECTION ( 'NONE',  ( 0.0000000000000000000, 0.0000000000000000000, -1.000000000000000000 ) ) ;
#167 = EDGE_CURVE ( 'NONE', #316, #321, #170, .T. ) ;
#168 = LINE ( 'NONE', #141, #162 ) ;
#169 = CARTESIAN_POINT ( 'NONE',  ( 0.0000000000000000000, 0.3019999999999999900, -0.5625000000000001100 ) ) ;
#170 = CIRCLE ( 'NONE', #182, 0.2500000000000000600 ) ;
#171 =( GEOMETRIC_REPRESENTATION_CONTEXT ( 3 ) GLOBAL_UNCERTAINTY_ASSIGNED_CONTEXT ( ( #211 ) ) GLOBAL_UNIT_ASSIGNED_CONTEXT ( ( #250, #111, #281 ) ) REPRESENTATION_CONTEXT ( 'NONE', 'WORKASPACE' ) );
#172 = DIRECTION ( 'NONE',  ( -1.000000000000000000, 0.0000000000000000000, 0.0000000000000000000 ) ) ;
#173 = DIRECTION ( 'NONE',  ( 0.0000000000000000000, 0.0000000000000000000, 1.000000000000000000 ) ) ;
#174 = AXIS2_PLACEMENT_3D ( 'NONE', #6, #172, #41 ) ;
#175 =( LENGTH_UNIT ( ) NAMED_UNIT ( * ) SI_UNIT ( $, .METRE. ) );
#176 = CARTESIAN_POINT ( 'NONE',  ( 3.061616997868383000E-017, 0.0000000000000000000, 0.2500000000000000000 ) ) ;
#177 =( NAMED_UNIT ( * ) PLANE_ANGLE_UNIT ( ) SI_UNIT ( $, .RADIAN. ) );
#178 = ADVANCED_FACE ( 'NONE', ( #198 ), #158, .T. ) ;
#179 = EDGE_CURVE ( 'NONE', #298, #321, #168, .T. ) ;
#180 = DIMENSIONAL_EXPONENTS ( 1.000000000000000000, 0.0000000000000000000, 0.0000000000000000000, 0.0000000000000000000, 0.0000000000000000000, 0.0000000000000000000, 0.0000000000000000000 ) ;
#181 = LENGTH_MEASURE_WITH_UNIT ( LENGTH_MEASURE( 0.02539999999999999900 ), #91 );
#182 = AXIS2_PLACEMENT_3D ( 'NONE', #61, #212, #85 ) ;
#183 = CARTESIAN_POINT ( 'NONE',  ( 0.0000000000000000000, 0.01000000000000000000, -0.5625000000000001100 ) ) ;
#184 = AXIS2_PLACEMENT_3D ( 'NONE', #108, #271, #121 ) ;
#185 = DIRECTION ( 'NONE',  ( -0.0000000000000000000, -1.000000000000000000, -0.0000000000000000000 ) ) ;
#186 = CARTESIAN_POINT ( 'NONE',  ( 0.0000000000000000000, 0.0000000000000000000, 0.0000000000000000000 ) ) ;
#187 = DIRECTION ( 'NONE',  ( -0.0000000000000000000, -1.000000000000000000, -0.0000000000000000000 ) ) ;
#188 = AXIS2_PLACEMENT_3D ( 'NONE', #276, #72, #223 ) ;
#189 = EDGE_CURVE ( 'NONE', #287, #283, #202, .T. ) ;
#190 = DIRECTION ( 'NONE',  ( 0.0000000000000000000, 1.000000000000000000, 0.0000000000000000000 ) ) ;
#191 = DIRECTION ( 'NONE',  ( -0.0000000000000000000, -1.000000000000000000, -0.0000000000000000000 ) ) ;
#192 = DIRECTION ( 'NONE',  ( -1.000000000000000000, 0.0000000000000000000, 0.0000000000000000000 ) ) ;
#193 = PRESENTATION_STYLE_ASSIGNMENT (( #222 ) ) ;
#194 =( NAMED_UNIT ( * ) PLANE_ANGLE_UNIT ( ) SI_UNIT ( $, .RADIAN. ) );
#195 = FILL_AREA_STYLE ('',( #11 ) ) ;
#196 = AXIS2_PLACEMENT_3D ( 'NONE', #204, #79, #235 ) ;
#197 = SURFACE_STYLE_FILL_AREA ( #195 ) ;
#198 = FACE_OUTER_BOUND ( 'NONE', #4, .T. ) ;
#199 = VECTOR ( 'NONE', #48, 39.37007874015748100 ) ;
#200 = AXIS2_PLACEMENT_3D ( 'NONE', #82, #185, #105 ) ;
#201 = LINE ( 'NONE', #176, #199 ) ;
#202 = LINE ( 'NONE', #106, #156 ) ;
#203 = TOROIDAL_SURFACE ( 'NONE', #120, 0.5525000000000001000, 0.01000000000000000000 ) ;
#204 = CARTESIAN_POINT ( 'NONE',  ( 0.0000000000000000000, 0.3019999999999999900, 0.0000000000000000000 ) ) ;
#205 = CARTESIAN_POINT ( 'NONE',  ( 6.827405905246494400E-017, 0.3120000000000000000, -0.5525000000000001000 ) ) ;
#206 = EDGE_CURVE ( 'NONE', #325, #288, #157, .T. ) ;
#207 = CARTESIAN_POINT ( 'NONE',  ( 3.061616997868383600E-017, 7.582401355855259500E-033, 0.2500000000000000600 ) ) ;
#208 = COLOUR_RGB ( '',1.000000000000000000, 0.9490196078431372100, 0.9098039215686274400 ) ;
#209 = CIRCLE ( 'NONE', #84, 0.2500000000000000000 ) ;
#210 = TOROIDAL_SURFACE ( 'NONE', #95, 0.5525000000000001000, 0.01000000000000000000 ) ;
#211 = UNCERTAINTY_MEASURE_WITH_UNIT (LENGTH_MEASURE( 1.000000000000000100E-005 ), #250, 'distance_accuracy_value', 'NONE');
#212 = DIRECTION ( 'NONE',  ( -0.0000000000000000000, -1.000000000000000000, -0.0000000000000000000 ) ) ;
#213 = AXIS2_PLACEMENT_3D ( 'NONE', #119, #295, #135 ) ;
#214 = FACE_OUTER_BOUND ( 'NONE', #267, .T. ) ;
#215 = FACE_OUTER_BOUND ( 'NONE', #270, .T. ) ;
#216 = CIRCLE ( 'NONE', #71, 0.01000000000000003000 ) ;
#217 = CARTESIAN_POINT ( 'NONE',  ( 6.766173565289126900E-017, 0.01000000000000000000, 0.5525000000000001000 ) ) ;
#218 = CIRCLE ( 'NONE', #12, 0.01000000000000003000 ) ;
#219 = TOROIDAL_SURFACE ( 'NONE', #36, 0.5525000000000001000, 0.01000000000000000000 ) ;
#220 = FILL_AREA_STYLE_COLOUR ( '', #104 ) ;
#221 = CARTESIAN_POINT ( 'NONE',  ( 0.0000000000000000000, 0.3019999999999999900, 0.0000000000000000000 ) ) ;
#222 = SURFACE_STYLE_USAGE ( .BOTH. , #70 ) ;
#223 = DIRECTION ( 'NONE',  ( 1.000000000000000000, 0.0000000000000000000, 0.0000000000000000000 ) ) ;
#224 = CIRCLE ( 'NONE', #55, 0.5525000000000001000 ) ;
#225 = FACE_OUTER_BOUND ( 'NONE', #38, .T. ) ;
#226 = PRODUCT_DEFINITION ( 'UNKNOWN', '', #243, #99 ) ;
#227 = ADVANCED_FACE ( 'NONE', ( #161 ), #144, .T. ) ;
#228 = EDGE_CURVE ( 'NONE', #287, #325, #146, .T. ) ;
#229 = CIRCLE ( 'NONE', #279, 0.01000000000000003000 ) ;
#230 = FACE_OUTER_BOUND ( 'NONE', #13, .T. ) ;
#231 = CIRCLE ( 'NONE', #239, 0.5625000000000001100 ) ;
#232 = AXIS2_PLACEMENT_3D ( 'NONE', #186, #327, #242 ) ;
#233 = ORIENTED_EDGE ( 'NONE', *, *, #323, .F. ) ;
#234 = DIRECTION ( 'NONE',  ( 1.000000000000000000, -0.0000000000000000000, 1.224646799147353200E-016 ) ) ;
#235 = DIRECTION ( 'NONE',  ( 0.0000000000000000000, 0.0000000000000000000, 1.000000000000000000 ) ) ;
#236 = CARTESIAN_POINT ( 'NONE',  ( 0.0000000000000000000, 0.0000000000000000000, 0.0000000000000000000 ) ) ;
#237 = TOROIDAL_SURFACE ( 'NONE', #300, 0.5525000000000001000, 0.01000000000000000000 ) ;
#238 = DIRECTION ( 'NONE',  ( -0.0000000000000000000, -1.000000000000000000, -0.0000000000000000000 ) ) ;
#239 = AXIS2_PLACEMENT_3D ( 'NONE', #259, #117, #293 ) ;
#240 = FACE_BOUND ( 'NONE', #282, .T. ) ;
#241 = CYLINDRICAL_SURFACE ( 'NONE', #200, 0.2500000000000000000 ) ;
#242 = DIRECTION ( 'NONE',  ( 0.0000000000000000000, 0.0000000000000000000, -1.000000000000000000 ) ) ;
#243 = PRODUCT_DEFINITION_FORMATION_WITH_SPECIFIED_SOURCE ( 'ANY', '', #118, .NOT_KNOWN. ) ;
#244 = CIRCLE ( 'NONE', #184, 0.5525000000000001000 ) ;
#245 = EDGE_CURVE ( 'NONE', #288, #283, #154, .T. ) ;
#246 = DIRECTION ( 'NONE',  ( -1.224646799147346800E-016, 0.0000000000000000000, -1.000000000000000000 ) ) ;
#247 = CARTESIAN_POINT ( 'NONE',  ( 3.061616997868383000E-017, 0.3120000000000000000, 0.2500000000000000000 ) ) ;
#248 = CARTESIAN_POINT ( 'NONE',  ( 0.0000000000000000000, 0.3120000000000000000, 0.0000000000000000000 ) ) ;
#249 = CIRCLE ( 'NONE', #315, 0.5625000000000001100 ) ;
#250 =( CONVERSION_BASED_UNIT ( 'INCH', #181 ) LENGTH_UNIT ( ) NAMED_UNIT ( #286 ) );
#251 = CIRCLE ( 'NONE', #174, 0.01000000000000003000 ) ;
#252 = APPLICATION_CONTEXT ( 'automotive_design' ) ;
#253 = AXIS2_PLACEMENT_3D ( 'NONE', #302, #268, #7 ) ;
#254 = FACE_OUTER_BOUND ( 'NONE', #33, .T. ) ;
#255 = ADVANCED_FACE ( 'NONE', ( #149, #140 ), #164, .T. ) ;
#256 = AXIS2_PLACEMENT_3D ( 'NONE', #64, #190, #65 ) ;
#257 = ORIENTED_EDGE ( 'NONE', *, *, #245, .F. ) ;
#258 = EDGE_LOOP ( 'NONE', ( #42, #17, #305, #60 ) ) ;
#259 = CARTESIAN_POINT ( 'NONE',  ( 0.0000000000000000000, 0.3019999999999999900, 0.0000000000000000000 ) ) ;
#260 = PRODUCT_RELATED_PRODUCT_CATEGORY ( 'part', '', ( #118 ) ) ;
#261 = ORIENTED_EDGE ( 'NONE', *, *, #75, .F. ) ;
#262 = CARTESIAN_POINT ( 'NONE',  ( 0.2500000000000000600, 3.791200677927629700E-033, 0.0000000000000000000 ) ) ;
#263 = DIRECTION ( 'NONE',  ( 0.0000000000000000000, 0.0000000000000000000, -1.000000000000000000 ) ) ;
#264 = EDGE_CURVE ( 'NONE', #301, #266, #148, .T. ) ;
#265 = CARTESIAN_POINT ( 'NONE',  ( 0.0000000000000000000, 0.3120000000000000000, -0.2500000000000000000 ) ) ;
#266 = VERTEX_POINT ( 'NONE', #32 ) ;
#267 = EDGE_LOOP ( 'NONE', ( #275, #9, #29, #10 ) ) ;
#268 = DIRECTION ( 'NONE',  ( -0.0000000000000000000, -1.000000000000000000, -0.0000000000000000000 ) ) ;
#269 = VERTEX_POINT ( 'NONE', #205 ) ;
#270 = EDGE_LOOP ( 'NONE', ( #261, #74, #21, #233 ) ) ;
#271 = DIRECTION ( 'NONE',  ( 0.0000000000000000000, 1.000000000000000000, 0.0000000000000000000 ) ) ;
#272 = PRODUCT_DEFINITION_SHAPE ( 'NONE', 'NONE',  #226 ) ;
#273 = ORIENTED_EDGE ( 'NONE', *, *, #285, .T. ) ;
#274 = ORIENTED_EDGE ( 'NONE', *, *, #88, .T. ) ;
#275 = ORIENTED_EDGE ( 'NONE', *, *, #59, .F. ) ;
#276 = CARTESIAN_POINT ( 'NONE',  ( 0.0000000000000000000, 0.0000000000000000000, 0.0000000000000000000 ) ) ;
#277 = UNCERTAINTY_MEASURE_WITH_UNIT (LENGTH_MEASURE( 1.000000000000000100E-005 ), #47, 'distance_accuracy_value', 'NONE');
#278 = DIRECTION ( 'NONE',  ( 0.0000000000000000000, 0.0000000000000000000, -1.000000000000000000 ) ) ;
#279 = AXIS2_PLACEMENT_3D ( 'NONE', #78, #234, #96 ) ;
#280 = FILL_AREA_STYLE ('',( #220 ) ) ;
#281 =( NAMED_UNIT ( * ) SI_UNIT ( $, .STERADIAN. ) SOLID_ANGLE_UNIT ( ) );
#282 = EDGE_LOOP ( 'NONE', ( #304, #34 ) ) ;
#283 = VERTEX_POINT ( 'NONE', #80 ) ;
#284 = ADVANCED_FACE ( 'NONE', ( #139 ), #128, .F. ) ;
#285 = EDGE_CURVE ( 'NONE', #321, #316, #131, .T. ) ;
#286 = DIMENSIONAL_EXPONENTS ( 1.000000000000000000, 0.0000000000000000000, 0.0000000000000000000, 0.0000000000000000000, 0.0000000000000000000, 0.0000000000000000000, 0.0000000000000000000 ) ;
#287 = VERTEX_POINT ( 'NONE', #58 ) ;
#288 = VERTEX_POINT ( 'NONE', #183 ) ;
#289 = ORIENTED_EDGE ( 'NONE', *, *, #189, .T. ) ;
#290 = AXIS2_PLACEMENT_3D ( 'NONE', #236, #98, #263 ) ;
#291 = ORIENTED_EDGE ( 'NONE', *, *, #323, .T. ) ;
#292 = ORIENTED_EDGE ( 'NONE', *, *, #167, .F. ) ;
#293 = DIRECTION ( 'NONE',  ( 0.0000000000000000000, 0.0000000000000000000, 1.000000000000000000 ) ) ;
#294 = CARTESIAN_POINT ( 'NONE',  ( 0.0000000000000000000, 0.01000000000000000000, 0.0000000000000000000 ) ) ;
#295 = DIRECTION ( 'NONE',  ( 0.0000000000000000000, 1.000000000000000000, 0.0000000000000000000 ) ) ;
#296 = ORIENTED_EDGE ( 'NONE', *, *, #189, .F. ) ;
#297 = ORIENTED_EDGE ( 'NONE', *, *, #179, .T. ) ;
#298 = VERTEX_POINT ( 'NONE', #265 ) ;
#299 = CARTESIAN_POINT ( 'NONE',  ( 0.0000000000000000000, 0.3120000000000000000, 0.5525000000000001000 ) ) ;
#300 = AXIS2_PLACEMENT_3D ( 'NONE', #318, #163, #30 ) ;
#301 = VERTEX_POINT ( 'NONE', #322 ) ;
#302 = CARTESIAN_POINT ( 'NONE',  ( 0.0000000000000000000, 0.0000000000000000000, 0.0000000000000000000 ) ) ;
#303 = VERTEX_POINT ( 'NONE', #299 ) ;
#304 = ORIENTED_EDGE ( 'NONE', *, *, #306, .T. ) ;
#305 = ORIENTED_EDGE ( 'NONE', *, *, #167, .T. ) ;
#306 = EDGE_CURVE ( 'NONE', #298, #326, #142, .T. ) ;
#307 = DIRECTION ( 'NONE',  ( -0.0000000000000000000, -1.000000000000000000, -0.0000000000000000000 ) ) ;
#308 = DIRECTION ( 'NONE',  ( 0.0000000000000000000, 1.000000000000000000, 0.0000000000000000000 ) ) ;
#309 = SURFACE_STYLE_USAGE ( .BOTH. , #126 ) ;
#310 = EDGE_LOOP ( 'NONE', ( #53, #22, #297, #273 ) ) ;
#311 = ORIENTED_EDGE ( 'NONE', *, *, #123, .F. ) ;
#312 = AXIS2_PLACEMENT_3D ( 'NONE', #262, #320, #166 ) ;
#313 = ORIENTED_EDGE ( 'NONE', *, *, #114, .T. ) ;
#314 = ORIENTED_EDGE ( 'NONE', *, *, #228, .T. ) ;
#315 = AXIS2_PLACEMENT_3D ( 'NONE', #294, #134, #319 ) ;
#316 = VERTEX_POINT ( 'NONE', #207 ) ;
#317 = ORIENTED_EDGE ( 'NONE', *, *, #88, .F. ) ;
#318 = CARTESIAN_POINT ( 'NONE',  ( 0.0000000000000000000, 0.01000000000000000000, 0.0000000000000000000 ) ) ;
#319 = DIRECTION ( 'NONE',  ( 0.0000000000000000000, 0.0000000000000000000, -1.000000000000000000 ) ) ;
#320 = DIRECTION ( 'NONE',  ( 0.0000000000000000000, -1.000000000000000000, -0.0000000000000000000 ) ) ;
#321 = VERTEX_POINT ( 'NONE', #324 ) ;
#322 = CARTESIAN_POINT ( 'NONE',  ( 6.827405905246494400E-017, 0.0000000000000000000, 0.5525000000000001000 ) ) ;
#323 = EDGE_CURVE ( 'NONE', #269, #303, #138, .T. ) ;
#324 = CARTESIAN_POINT ( 'NONE',  ( 0.0000000000000000000, 7.582401355855259500E-033, -0.2500000000000000600 ) ) ;
#325 = VERTEX_POINT ( 'NONE', #169 ) ;
#326 = VERTEX_POINT ( 'NONE', #247 ) ;
#327 = DIRECTION ( 'NONE',  ( -0.0000000000000000000, -1.000000000000000000, -0.0000000000000000000 ) ) ;
ENDSEC;
END-ISO-10303-21;
