ISO-10303-21;
HEADER;
FILE_DESCRIPTION (( 'STEP AP214' ),
    '1' );
FILE_NAME ('am-0300 Shift Shaft Spacer.STEP',
    '2014-08-20T21:00:13',
    ( '' ),
    ( '' ),
    'SwSTEP 2.0',
    'SolidWorks 2014',
    '' );
FILE_SCHEMA (( 'AUTOMOTIVE_DESIGN' ));
ENDSEC;

DATA;
#1 = DIRECTION ( 'NONE',  ( -0.0000000000000000000, -1.000000000000000000, -0.0000000000000000000 ) ) ;
#2 = DIRECTION ( 'NONE',  ( 0.0000000000000000000, -0.0000000000000000000, 1.000000000000000000 ) ) ;
#3 = DIRECTION ( 'NONE',  ( 0.0000000000000000000, 1.000000000000000000, 0.0000000000000000000 ) ) ;
#4 = PRODUCT_CONTEXT ( 'NONE', #56, 'mechanical' ) ;
#5 = DIMENSIONAL_EXPONENTS ( 1.000000000000000000, 0.0000000000000000000, 0.0000000000000000000, 0.0000000000000000000, 0.0000000000000000000, 0.0000000000000000000, 0.0000000000000000000 ) ;
#6 =( LENGTH_UNIT ( ) NAMED_UNIT ( * ) SI_UNIT ( $, .METRE. ) );
#7 =( CONVERSION_BASED_UNIT ( 'INCH', #35 ) LENGTH_UNIT ( ) NAMED_UNIT ( #169 ) );
#8 = CARTESIAN_POINT ( 'NONE',  ( 1.530808498934190300E-017, 0.3350000000000000200, 0.1249999999999999000 ) ) ;
#9 = APPLICATION_PROTOCOL_DEFINITION ( 'draft international standard', 'automotive_design', 1998, #139 ) ;
#10 = EDGE_LOOP ( 'NONE', ( #83, #48 ) ) ;
#11 = VERTEX_POINT ( 'NONE', #221 ) ;
#12 = ORIENTED_EDGE ( 'NONE', *, *, #214, .T. ) ;
#13 = ORIENTED_EDGE ( 'NONE', *, *, #167, .T. ) ;
#14 = ORIENTED_EDGE ( 'NONE', *, *, #174, .T. ) ;
#15 = PRESENTATION_STYLE_ASSIGNMENT (( #160 ) ) ;
#16 = MANIFOLD_SOLID_BREP ( 'Boss-Extrude1', #91 ) ;
#17 = VERTEX_POINT ( 'NONE', #116 ) ;
#18 = SURFACE_STYLE_USAGE ( .BOTH. , #143 ) ;
#19 = ORIENTED_EDGE ( 'NONE', *, *, #219, .F. ) ;
#20 = ADVANCED_FACE ( 'NONE', ( #73 ), #68, .T. ) ;
#21 = ORIENTED_EDGE ( 'NONE', *, *, #218, .F. ) ;
#22 =( NAMED_UNIT ( * ) PLANE_ANGLE_UNIT ( ) SI_UNIT ( $, .RADIAN. ) );
#23 = CARTESIAN_POINT ( 'NONE',  ( 0.0000000000000000000, 0.3350000000000000200, 0.0000000000000000000 ) ) ;
#24 = DIRECTION ( 'NONE',  ( 0.0000000000000000000, 1.000000000000000000, 0.0000000000000000000 ) ) ;
#25 = ORIENTED_EDGE ( 'NONE', *, *, #215, .T. ) ;
#26 = ORIENTED_EDGE ( 'NONE', *, *, #217, .F. ) ;
#27 = EDGE_LOOP ( 'NONE', ( #107, #13, #97, #85 ) ) ;
#28 = ORIENTED_EDGE ( 'NONE', *, *, #213, .T. ) ;
#29 =( NAMED_UNIT ( * ) SI_UNIT ( $, .STERADIAN. ) SOLID_ANGLE_UNIT ( ) );
#30 = DIRECTION ( 'NONE',  ( 0.0000000000000000000, 0.0000000000000000000, 1.000000000000000000 ) ) ;
#31 = PRESENTATION_STYLE_ASSIGNMENT (( #18 ) ) ;
#32 = PRODUCT_DEFINITION_CONTEXT ( 'detailed design', #139, 'design' ) ;
#33 = LENGTH_MEASURE_WITH_UNIT ( LENGTH_MEASURE( 0.02539999999999999900 ), #154 );
#34 = SURFACE_SIDE_STYLE ('',( #78 ) ) ;
#35 = LENGTH_MEASURE_WITH_UNIT ( LENGTH_MEASURE( 0.02539999999999999900 ), #135 );
#36 = CIRCLE ( 'NONE', #163, 0.1249999999999999000 ) ;
#37 = VECTOR ( 'NONE', #161, 39.37007874015748100 ) ;
#38 = LINE ( 'NONE', #181, #43 ) ;
#39 =( CONVERSION_BASED_UNIT ( 'INCH', #33 ) LENGTH_UNIT ( ) NAMED_UNIT ( #132 ) );
#40 = ADVANCED_FACE ( 'NONE', ( #72 ), #60, .F. ) ;
#41 = DIRECTION ( 'NONE',  ( -0.0000000000000000000, -1.000000000000000000, -0.0000000000000000000 ) ) ;
#42 = COLOUR_RGB ( '',0.6470588235294118000, 0.5176470588235293500, 0.0000000000000000000 ) ;
#43 = VECTOR ( 'NONE', #137, 39.37007874015748100 ) ;
#44 = SURFACE_STYLE_FILL_AREA ( #114 ) ;
#45 = CIRCLE ( 'NONE', #185, 0.1109999999999999900 ) ;
#46 = CYLINDRICAL_SURFACE ( 'NONE', #180, 0.1249999999999999000 ) ;
#47 = LINE ( 'NONE', #172, #50 ) ;
#48 = ORIENTED_EDGE ( 'NONE', *, *, #215, .F. ) ;
#49 = LINE ( 'NONE', #165, #37 ) ;
#50 = VECTOR ( 'NONE', #127, 39.37007874015748100 ) ;
#51 = CIRCLE ( 'NONE', #192, 0.1249999999999999000 ) ;
#52 = PRODUCT ( 'am-0300 Shift Shaft Spacer', 'am-0300 Shift Shaft Spacer', '', ( #4 ) ) ;
#53 = FACE_BOUND ( 'NONE', #79, .T. ) ;
#54 = FACE_OUTER_BOUND ( 'NONE', #89, .T. ) ;
#55 = CIRCLE ( 'NONE', #140, 0.1109999999999999900 ) ;
#56 = APPLICATION_CONTEXT ( 'automotive_design' ) ;
#57 = UNCERTAINTY_MEASURE_WITH_UNIT (LENGTH_MEASURE( 1.000000000000000100E-005 ), #147, 'distance_accuracy_value', 'NONE');
#58 = CIRCLE ( 'NONE', #144, 0.1249999999999999000 ) ;
#59 = CIRCLE ( 'NONE', #190, 0.1249999999999999000 ) ;
#60 = CYLINDRICAL_SURFACE ( 'NONE', #196, 0.1109999999999999900 ) ;
#61 = FACE_OUTER_BOUND ( 'NONE', #10, .T. ) ;
#62 = CYLINDRICAL_SURFACE ( 'NONE', #195, 0.1109999999999999900 ) ;
#63 = CIRCLE ( 'NONE', #203, 0.1109999999999999900 ) ;
#64 = CARTESIAN_POINT ( 'NONE',  ( 0.0000000000000000000, 0.0000000000000000000, 0.0000000000000000000 ) ) ;
#65 = CIRCLE ( 'NONE', #193, 0.1109999999999999900 ) ;
#66 = VECTOR ( 'NONE', #1, 39.37007874015748100 ) ;
#67 = FACE_BOUND ( 'NONE', #90, .T. ) ;
#68 = CYLINDRICAL_SURFACE ( 'NONE', #199, 0.1249999999999999000 ) ;
#69 = FACE_OUTER_BOUND ( 'NONE', #104, .T. ) ;
#70 = FACE_OUTER_BOUND ( 'NONE', #81, .T. ) ;
#71 = DIRECTION ( 'NONE',  ( 0.0000000000000000000, 1.000000000000000000, 0.0000000000000000000 ) ) ;
#72 = FACE_OUTER_BOUND ( 'NONE', #27, .T. ) ;
#73 = FACE_OUTER_BOUND ( 'NONE', #88, .T. ) ;
#74 = LENGTH_MEASURE_WITH_UNIT ( LENGTH_MEASURE( 0.02539999999999999900 ), #6 );
#75 = CARTESIAN_POINT ( 'NONE',  ( 1.359357947053562000E-017, 0.3350000000000000200, 0.1109999999999999900 ) ) ;
#76 =( NAMED_UNIT ( * ) SI_UNIT ( $, .STERADIAN. ) SOLID_ANGLE_UNIT ( ) );
#77 = LINE ( 'NONE', #75, #66 ) ;
#78 = SURFACE_STYLE_FILL_AREA ( #175 ) ;
#79 = EDGE_LOOP ( 'NONE', ( #98, #86 ) ) ;
#80 = CARTESIAN_POINT ( 'NONE',  ( 0.0000000000000000000, 0.3350000000000000200, 0.0000000000000000000 ) ) ;
#81 = EDGE_LOOP ( 'NONE', ( #103, #14 ) ) ;
#82 = DIRECTION ( 'NONE',  ( 0.0000000000000000000, 0.0000000000000000000, -1.000000000000000000 ) ) ;
#83 = ORIENTED_EDGE ( 'NONE', *, *, #213, .F. ) ;
#84 = VERTEX_POINT ( 'NONE', #124 ) ;
#85 = ORIENTED_EDGE ( 'NONE', *, *, #220, .F. ) ;
#86 = ORIENTED_EDGE ( 'NONE', *, *, #212, .T. ) ;
#87 = ORIENTED_EDGE ( 'NONE', *, *, #217, .T. ) ;
#88 = EDGE_LOOP ( 'NONE', ( #202, #102, #25, #26 ) ) ;
#89 = EDGE_LOOP ( 'NONE', ( #21, #19, #87, #28 ) ) ;
#90 = EDGE_LOOP ( 'NONE', ( #106, #95 ) ) ;
#91 = CLOSED_SHELL ( 'NONE', ( #40, #20, #133, #179, #200, #122 ) ) ;
#92 = VERTEX_POINT ( 'NONE', #206 ) ;
#93 = VERTEX_POINT ( 'NONE', #112 ) ;
#94 = VERTEX_POINT ( 'NONE', #134 ) ;
#95 = ORIENTED_EDGE ( 'NONE', *, *, #214, .F. ) ;
#96 = VERTEX_POINT ( 'NONE', #8 ) ;
#97 = ORIENTED_EDGE ( 'NONE', *, *, #162, .F. ) ;
#98 = ORIENTED_EDGE ( 'NONE', *, *, #162, .T. ) ;
#99 = VERTEX_POINT ( 'NONE', #148 ) ;
#100 = ORIENTED_EDGE ( 'NONE', *, *, #167, .F. ) ;
#101 = CARTESIAN_POINT ( 'NONE',  ( 0.0000000000000000000, 0.0000000000000000000, 0.0000000000000000000 ) ) ;
#102 = ORIENTED_EDGE ( 'NONE', *, *, #218, .T. ) ;
#103 = ORIENTED_EDGE ( 'NONE', *, *, #219, .T. ) ;
#104 = EDGE_LOOP ( 'NONE', ( #100, #12, #123, #105 ) ) ;
#105 = ORIENTED_EDGE ( 'NONE', *, *, #212, .F. ) ;
#106 = ORIENTED_EDGE ( 'NONE', *, *, #173, .F. ) ;
#107 = ORIENTED_EDGE ( 'NONE', *, *, #173, .T. ) ;
#108 = COLOUR_RGB ( '',0.6470588235294118000, 0.5176470588235293500, 0.0000000000000000000 ) ;
#109 = DIRECTION ( 'NONE',  ( 0.0000000000000000000, 1.000000000000000000, 0.0000000000000000000 ) ) ;
#110 = DIRECTION ( 'NONE',  ( 0.0000000000000000000, 0.0000000000000000000, 1.000000000000000000 ) ) ;
#111 = CARTESIAN_POINT ( 'NONE',  ( 0.0000000000000000000, 0.3350000000000000200, 0.0000000000000000000 ) ) ;
#112 = CARTESIAN_POINT ( 'NONE',  ( 0.0000000000000000000, 0.0000000000000000000, -0.1249999999999999000 ) ) ;
#113 = CARTESIAN_POINT ( 'NONE',  ( 0.0000000000000000000, 0.3350000000000000200, 0.0000000000000000000 ) ) ;
#114 = FILL_AREA_STYLE ('',( #187 ) ) ;
#115 = DIRECTION ( 'NONE',  ( 0.0000000000000000000, 0.0000000000000000000, 1.000000000000000000 ) ) ;
#116 = CARTESIAN_POINT ( 'NONE',  ( 1.359357947053562000E-017, 0.0000000000000000000, 0.1109999999999999900 ) ) ;
#117 = CARTESIAN_POINT ( 'NONE',  ( 0.0000000000000000000, 0.3350000000000000200, 0.0000000000000000000 ) ) ;
#118 = CARTESIAN_POINT ( 'NONE',  ( 0.0000000000000000000, 0.3350000000000000200, 0.0000000000000000000 ) ) ;
#119 = PLANE ( 'NONE',  #194 ) ;
#120 = CARTESIAN_POINT ( 'NONE',  ( 0.0000000000000000000, 0.0000000000000000000, 0.0000000000000000000 ) ) ;
#121 = APPLICATION_PROTOCOL_DEFINITION ( 'draft international standard', 'automotive_design', 1998, #56 ) ;
#122 = ADVANCED_FACE ( 'NONE', ( #69 ), #62, .F. ) ;
#123 = ORIENTED_EDGE ( 'NONE', *, *, #220, .T. ) ;
#124 = CARTESIAN_POINT ( 'NONE',  ( 0.0000000000000000000, 0.3350000000000000200, -0.1249999999999999000 ) ) ;
#125 = DIRECTION ( 'NONE',  ( 0.0000000000000000000, 0.0000000000000000000, 1.000000000000000000 ) ) ;
#126 = PRODUCT_DEFINITION ( 'UNKNOWN', '', #155, #32 ) ;
#127 = DIRECTION ( 'NONE',  ( -0.0000000000000000000, -1.000000000000000000, -0.0000000000000000000 ) ) ;
#128 = DIRECTION ( 'NONE',  ( 0.0000000000000000000, 0.0000000000000000000, 1.000000000000000000 ) ) ;
#129 = CARTESIAN_POINT ( 'NONE',  ( 0.0000000000000000000, 0.0000000000000000000, 0.0000000000000000000 ) ) ;
#130 = DIRECTION ( 'NONE',  ( 0.0000000000000000000, -0.0000000000000000000, 1.000000000000000000 ) ) ;
#131 = AXIS2_PLACEMENT_3D ( 'NONE', #64, #110, #201 ) ;
#132 = DIMENSIONAL_EXPONENTS ( 1.000000000000000000, 0.0000000000000000000, 0.0000000000000000000, 0.0000000000000000000, 0.0000000000000000000, 0.0000000000000000000, 0.0000000000000000000 ) ;
#133 = ADVANCED_FACE ( 'NONE', ( #70, #67 ), #119, .T. ) ;
#134 = CARTESIAN_POINT ( 'NONE',  ( 0.0000000000000000000, 0.3350000000000000200, -0.1109999999999999900 ) ) ;
#135 =( LENGTH_UNIT ( ) NAMED_UNIT ( * ) SI_UNIT ( $, .METRE. ) );
#136 =( GEOMETRIC_REPRESENTATION_CONTEXT ( 3 ) GLOBAL_UNCERTAINTY_ASSIGNED_CONTEXT ( ( #153 ) ) GLOBAL_UNIT_ASSIGNED_CONTEXT ( ( #39, #166, #76 ) ) REPRESENTATION_CONTEXT ( 'NONE', 'WORKASPACE' ) );
#137 = DIRECTION ( 'NONE',  ( -0.0000000000000000000, -1.000000000000000000, -0.0000000000000000000 ) ) ;
#138 = DIRECTION ( 'NONE',  ( 0.0000000000000000000, 0.0000000000000000000, 1.000000000000000000 ) ) ;
#139 = APPLICATION_CONTEXT ( 'automotive_design' ) ;
#140 = AXIS2_PLACEMENT_3D ( 'NONE', #111, #152, #30 ) ;
#141 = MECHANICAL_DESIGN_GEOMETRIC_PRESENTATION_REPRESENTATION (  '', ( #150 ), #136 ) ;
#142 = PLANE ( 'NONE',  #189 ) ;
#143 = SURFACE_SIDE_STYLE ('',( #44 ) ) ;
#144 = AXIS2_PLACEMENT_3D ( 'NONE', #101, #188, #115 ) ;
#145 = CARTESIAN_POINT ( 'NONE',  ( 0.0000000000000000000, 0.3350000000000000200, 0.0000000000000000000 ) ) ;
#146 = PRESENTATION_LAYER_ASSIGNMENT (  '', '', ( #150 ) ) ;
#147 =( CONVERSION_BASED_UNIT ( 'INCH', #74 ) LENGTH_UNIT ( ) NAMED_UNIT ( #5 ) );
#148 = CARTESIAN_POINT ( 'NONE',  ( 1.359357947053562000E-017, 0.3350000000000000200, 0.1109999999999999900 ) ) ;
#149 = CARTESIAN_POINT ( 'NONE',  ( 0.0000000000000000000, 0.3350000000000000200, 0.0000000000000000000 ) ) ;
#150 = STYLED_ITEM ( 'NONE', ( #31 ), #216 ) ;
#151 =( NAMED_UNIT ( * ) PLANE_ANGLE_UNIT ( ) SI_UNIT ( $, .RADIAN. ) );
#152 = DIRECTION ( 'NONE',  ( 0.0000000000000000000, 1.000000000000000000, 0.0000000000000000000 ) ) ;
#153 = UNCERTAINTY_MEASURE_WITH_UNIT (LENGTH_MEASURE( 1.000000000000000100E-005 ), #39, 'distance_accuracy_value', 'NONE');
#154 =( LENGTH_UNIT ( ) NAMED_UNIT ( * ) SI_UNIT ( $, .METRE. ) );
#155 = PRODUCT_DEFINITION_FORMATION_WITH_SPECIFIED_SOURCE ( 'ANY', '', #52, .NOT_KNOWN. ) ;
#156 = PRODUCT_RELATED_PRODUCT_CATEGORY ( 'part', '', ( #52 ) ) ;
#157 =( NAMED_UNIT ( * ) SI_UNIT ( $, .STERADIAN. ) SOLID_ANGLE_UNIT ( ) );
#158 = DIRECTION ( 'NONE',  ( 0.0000000000000000000, 0.0000000000000000000, 1.000000000000000000 ) ) ;
#159 =( GEOMETRIC_REPRESENTATION_CONTEXT ( 3 ) GLOBAL_UNCERTAINTY_ASSIGNED_CONTEXT ( ( #198 ) ) GLOBAL_UNIT_ASSIGNED_CONTEXT ( ( #7, #151, #29 ) ) REPRESENTATION_CONTEXT ( 'NONE', 'WORKASPACE' ) );
#160 = SURFACE_STYLE_USAGE ( .BOTH. , #34 ) ;
#161 = DIRECTION ( 'NONE',  ( -0.0000000000000000000, -1.000000000000000000, -0.0000000000000000000 ) ) ;
#162 = EDGE_CURVE ( 'NONE', #11, #17, #63, .T. ) ;
#163 = AXIS2_PLACEMENT_3D ( 'NONE', #118, #222, #128 ) ;
#164 = DIRECTION ( 'NONE',  ( 0.0000000000000000000, 0.0000000000000000000, -1.000000000000000000 ) ) ;
#165 = CARTESIAN_POINT ( 'NONE',  ( 1.530808498934190300E-017, 0.3350000000000000200, 0.1249999999999999000 ) ) ;
#166 =( NAMED_UNIT ( * ) PLANE_ANGLE_UNIT ( ) SI_UNIT ( $, .RADIAN. ) );
#167 = EDGE_CURVE ( 'NONE', #99, #17, #77, .T. ) ;
#168 = DIRECTION ( 'NONE',  ( 0.0000000000000000000, 0.0000000000000000000, -1.000000000000000000 ) ) ;
#169 = DIMENSIONAL_EXPONENTS ( 1.000000000000000000, 0.0000000000000000000, 0.0000000000000000000, 0.0000000000000000000, 0.0000000000000000000, 0.0000000000000000000, 0.0000000000000000000 ) ;
#170 = DIRECTION ( 'NONE',  ( -0.0000000000000000000, -1.000000000000000000, -0.0000000000000000000 ) ) ;
#171 = CARTESIAN_POINT ( 'NONE',  ( 0.0000000000000000000, 0.0000000000000000000, 0.0000000000000000000 ) ) ;
#172 = CARTESIAN_POINT ( 'NONE',  ( 0.0000000000000000000, 0.3350000000000000200, -0.1249999999999999000 ) ) ;
#173 = EDGE_CURVE ( 'NONE', #94, #99, #65, .T. ) ;
#174 = EDGE_CURVE ( 'NONE', #96, #84, #51, .T. ) ;
#175 = FILL_AREA_STYLE ('',( #191 ) ) ;
#176 = DIRECTION ( 'NONE',  ( 0.0000000000000000000, 0.0000000000000000000, 1.000000000000000000 ) ) ;
#177 = CARTESIAN_POINT ( 'NONE',  ( 0.0000000000000000000, 0.3350000000000000200, 0.0000000000000000000 ) ) ;
#178 = CARTESIAN_POINT ( 'NONE',  ( 0.0000000000000000000, 0.0000000000000000000, 0.0000000000000000000 ) ) ;
#179 = ADVANCED_FACE ( 'NONE', ( #61, #53 ), #142, .F. ) ;
#180 = AXIS2_PLACEMENT_3D ( 'NONE', #145, #41, #168 ) ;
#181 = CARTESIAN_POINT ( 'NONE',  ( 0.0000000000000000000, 0.3350000000000000200, -0.1109999999999999900 ) ) ;
#182 = SHAPE_DEFINITION_REPRESENTATION ( #207, #216 ) ;
#183 = DIRECTION ( 'NONE',  ( 0.0000000000000000000, 0.0000000000000000000, -1.000000000000000000 ) ) ;
#184 = DIRECTION ( 'NONE',  ( -0.0000000000000000000, -1.000000000000000000, -0.0000000000000000000 ) ) ;
#185 = AXIS2_PLACEMENT_3D ( 'NONE', #120, #71, #176 ) ;
#186 = DIRECTION ( 'NONE',  ( 0.0000000000000000000, 1.000000000000000000, 0.0000000000000000000 ) ) ;
#187 = FILL_AREA_STYLE_COLOUR ( '', #42 ) ;
#188 = DIRECTION ( 'NONE',  ( 0.0000000000000000000, 1.000000000000000000, 0.0000000000000000000 ) ) ;
#189 = AXIS2_PLACEMENT_3D ( 'NONE', #171, #186, #2 ) ;
#190 = AXIS2_PLACEMENT_3D ( 'NONE', #129, #3, #138 ) ;
#191 = FILL_AREA_STYLE_COLOUR ( '', #108 ) ;
#192 = AXIS2_PLACEMENT_3D ( 'NONE', #113, #209, #125 ) ;
#193 = AXIS2_PLACEMENT_3D ( 'NONE', #149, #24, #158 ) ;
#194 = AXIS2_PLACEMENT_3D ( 'NONE', #177, #223, #130 ) ;
#195 = AXIS2_PLACEMENT_3D ( 'NONE', #23, #184, #164 ) ;
#196 = AXIS2_PLACEMENT_3D ( 'NONE', #117, #205, #82 ) ;
#197 = DIRECTION ( 'NONE',  ( 0.0000000000000000000, 0.0000000000000000000, 1.000000000000000000 ) ) ;
#198 = UNCERTAINTY_MEASURE_WITH_UNIT (LENGTH_MEASURE( 1.000000000000000100E-005 ), #7, 'distance_accuracy_value', 'NONE');
#199 = AXIS2_PLACEMENT_3D ( 'NONE', #80, #170, #183 ) ;
#200 = ADVANCED_FACE ( 'NONE', ( #54 ), #46, .T. ) ;
#201 = DIRECTION ( 'NONE',  ( 1.000000000000000000, 0.0000000000000000000, 0.0000000000000000000 ) ) ;
#202 = ORIENTED_EDGE ( 'NONE', *, *, #174, .F. ) ;
#203 = AXIS2_PLACEMENT_3D ( 'NONE', #178, #109, #197 ) ;
#204 =( GEOMETRIC_REPRESENTATION_CONTEXT ( 3 ) GLOBAL_UNCERTAINTY_ASSIGNED_CONTEXT ( ( #57 ) ) GLOBAL_UNIT_ASSIGNED_CONTEXT ( ( #147, #22, #157 ) ) REPRESENTATION_CONTEXT ( 'NONE', 'WORKASPACE' ) );
#205 = DIRECTION ( 'NONE',  ( -0.0000000000000000000, -1.000000000000000000, -0.0000000000000000000 ) ) ;
#206 = CARTESIAN_POINT ( 'NONE',  ( 1.530808498934190300E-017, 0.0000000000000000000, 0.1249999999999999000 ) ) ;
#207 = PRODUCT_DEFINITION_SHAPE ( 'NONE', 'NONE',  #126 ) ;
#208 = MECHANICAL_DESIGN_GEOMETRIC_PRESENTATION_REPRESENTATION (  '', ( #211 ), #204 ) ;
#209 = DIRECTION ( 'NONE',  ( 0.0000000000000000000, 1.000000000000000000, 0.0000000000000000000 ) ) ;
#210 = PRESENTATION_LAYER_ASSIGNMENT (  '', '', ( #211 ) ) ;
#211 = STYLED_ITEM ( 'NONE', ( #15 ), #16 ) ;
#212 = EDGE_CURVE ( 'NONE', #17, #11, #45, .T. ) ;
#213 = EDGE_CURVE ( 'NONE', #93, #92, #59, .T. ) ;
#214 = EDGE_CURVE ( 'NONE', #99, #94, #55, .T. ) ;
#215 = EDGE_CURVE ( 'NONE', #92, #93, #58, .T. ) ;
#216 = ADVANCED_BREP_SHAPE_REPRESENTATION ( 'am-0300 Shift Shaft Spacer', ( #16, #131 ), #159 ) ;
#217 = EDGE_CURVE ( 'NONE', #84, #93, #47, .T. ) ;
#218 = EDGE_CURVE ( 'NONE', #96, #92, #49, .T. ) ;
#219 = EDGE_CURVE ( 'NONE', #84, #96, #36, .T. ) ;
#220 = EDGE_CURVE ( 'NONE', #94, #11, #38, .T. ) ;
#221 = CARTESIAN_POINT ( 'NONE',  ( 0.0000000000000000000, 0.0000000000000000000, -0.1109999999999999900 ) ) ;
#222 = DIRECTION ( 'NONE',  ( 0.0000000000000000000, 1.000000000000000000, 0.0000000000000000000 ) ) ;
#223 = DIRECTION ( 'NONE',  ( 0.0000000000000000000, 1.000000000000000000, 0.0000000000000000000 ) ) ;
ENDSEC;
END-ISO-10303-21;
