ISO-10303-21;
HEADER;
FILE_DESCRIPTION (( 'STEP AP203' ),
    '1' );
FILE_NAME ('am-1444 Shim Washer For Shortening .625in Dia Screw Shoulder_0.016 Thick_18-8 Stainess Steel.STEP',
    '2017-11-30T16:07:24',
    ( '' ),
    ( '' ),
    'SwSTEP 2.0',
    'SolidWorks 2017',
    '' );
FILE_SCHEMA (( 'CONFIG_CONTROL_DESIGN' ));
ENDSEC;

DATA;
#1 = CC_DESIGN_PERSON_AND_ORGANIZATION_ASSIGNMENT ( #70, #245, ( #241 ) ) ;
#2 = ADVANCED_FACE ( 'NONE', ( #61 ), #240, .T. ) ;
#3 = AXIS2_PLACEMENT_3D ( 'NONE', #99, #126, #80 ) ;
#4 = CARTESIAN_POINT ( 'NONE',  ( 0.0000000000000000000, 0.01600000000000000000, 0.3125000000000000000 ) ) ;
#5 = ORIENTED_EDGE ( 'NONE', *, *, #76, .T. ) ;
#6 = CYLINDRICAL_SURFACE ( 'NONE', #43, 0.4375000000000000000 ) ;
#7 = DIRECTION ( 'NONE',  ( 0.0000000000000000000, 0.0000000000000000000, -1.000000000000000000 ) ) ;
#8 = DIRECTION ( 'NONE',  ( 0.0000000000000000000, 1.000000000000000000, 0.0000000000000000000 ) ) ;
#9 = DIRECTION ( 'NONE',  ( 0.0000000000000000000, 1.000000000000000000, 0.0000000000000000000 ) ) ;
#10 = DIRECTION ( 'NONE',  ( 0.0000000000000000000, 1.000000000000000000, 0.0000000000000000000 ) ) ;
#11 = APPROVAL_PERSON_ORGANIZATION ( #183, #156, #68 ) ;
#12 = DIRECTION ( 'NONE',  ( -0.0000000000000000000, 1.000000000000000000, -0.0000000000000000000 ) ) ;
#13 = ORIENTED_EDGE ( 'NONE', *, *, #233, .F. ) ;
#14 = DIRECTION ( 'NONE',  ( 1.000000000000000000, 0.0000000000000000000, 0.0000000000000000000 ) ) ;
#15 = CIRCLE ( 'NONE', #93, 0.4375000000000000000 ) ;
#16 = APPROVAL ( #69, 'UNSPECIFIED' ) ;
#17 = EDGE_CURVE ( 'NONE', #102, #98, #169, .T. ) ;
#18 = AXIS2_PLACEMENT_3D ( 'NONE', #100, #148, #28 ) ;
#19 = LOCAL_TIME ( 11, 7, 24.00000000000000000, #164 ) ;
#20 = VECTOR ( 'NONE', #145, 39.37007874015748100 ) ;
#21 = CARTESIAN_POINT ( 'NONE',  ( 3.827021247335478900E-017, 0.0000000000000000000, -0.3125000000000000000 ) ) ;
#22 = PERSON_AND_ORGANIZATION ( #231, #178 ) ;
#23 = ORIENTED_EDGE ( 'NONE', *, *, #135, .F. ) ;
#24 = CARTESIAN_POINT ( 'NONE',  ( 3.827021247335478900E-017, 0.01600000000000000000, -0.3125000000000000000 ) ) ;
#25 = DIRECTION ( 'NONE',  ( 0.0000000000000000000, 1.000000000000000000, 0.0000000000000000000 ) ) ;
#26 = LINE ( 'NONE', #187, #115 ) ;
#27 = DESIGN_CONTEXT ( 'detailed design', #157, 'design' ) ;
#28 = DIRECTION ( 'NONE',  ( 0.0000000000000000000, -0.0000000000000000000, 1.000000000000000000 ) ) ;
#29 = CC_DESIGN_SECURITY_CLASSIFICATION ( #92, ( #241 ) ) ;
#30 = EDGE_CURVE ( 'NONE', #122, #72, #180, .T. ) ;
#31 = LOCAL_TIME ( 11, 7, 24.00000000000000000, #74 ) ;
#32 = CARTESIAN_POINT ( 'NONE',  ( 0.0000000000000000000, 0.0000000000000000000, 0.0000000000000000000 ) ) ;
#33 = CARTESIAN_POINT ( 'NONE',  ( 0.0000000000000000000, 0.0000000000000000000, 0.0000000000000000000 ) ) ;
#34 = SHAPE_DEFINITION_REPRESENTATION ( #138, #246 ) ;
#35 = CC_DESIGN_APPROVAL ( #156, ( #191 ) ) ;
#36 = PERSON_AND_ORGANIZATION_ROLE ( 'design_owner' ) ;
#37 = CIRCLE ( 'NONE', #136, 0.4375000000000000000 ) ;
#38 = ORIENTED_EDGE ( 'NONE', *, *, #17, .F. ) ;
#39 = APPROVAL_DATE_TIME ( #159, #16 ) ;
#40 = FACE_OUTER_BOUND ( 'NONE', #88, .T. ) ;
#41 = AXIS2_PLACEMENT_3D ( 'NONE', #116, #214, #73 ) ;
#42 = ADVANCED_FACE ( 'NONE', ( #196, #55 ), #162, .F. ) ;
#43 = AXIS2_PLACEMENT_3D ( 'NONE', #142, #250, #82 ) ;
#44 = CARTESIAN_POINT ( 'NONE',  ( 0.0000000000000000000, 0.01600000000000000000, -0.4375000000000000000 ) ) ;
#45 = ORIENTED_EDGE ( 'NONE', *, *, #96, .F. ) ;
#46 = DIRECTION ( 'NONE',  ( 0.0000000000000000000, 1.000000000000000000, 0.0000000000000000000 ) ) ;
#47 = APPLICATION_PROTOCOL_DEFINITION ( 'international standard', 'config_control_design', 1994, #157 ) ;
#48 = DATE_AND_TIME ( #106, #19 ) ;
#49 = CIRCLE ( 'NONE', #215, 0.3125000000000000000 ) ;
#50 = CC_DESIGN_PERSON_AND_ORGANIZATION_ASSIGNMENT ( #222, #133, ( #92 ) ) ;
#51 = AXIS2_PLACEMENT_3D ( 'NONE', #238, #127, #221 ) ;
#52 = PRODUCT ( 'am-1444 Shim Washer For Shortening .625in Dia Screw Shoulder_0.016 Thick_18-8 Stainess Steel', 'am-1444 Shim Washer For Shortening .625in Dia Screw Shoulder_0.016 Thick_18-8 Stainess Steel', '', ( #132 ) ) ;
#53 = AXIS2_PLACEMENT_3D ( 'NONE', #103, #200, #60 ) ;
#54 = ORIENTED_EDGE ( 'NONE', *, *, #223, .F. ) ;
#55 = FACE_OUTER_BOUND ( 'NONE', #114, .T. ) ;
#56 = CARTESIAN_POINT ( 'NONE',  ( 0.0000000000000000000, 0.01600000000000000000, 0.0000000000000000000 ) ) ;
#57 = ADVANCED_FACE ( 'NONE', ( #226 ), #6, .T. ) ;
#58 = ORIENTED_EDGE ( 'NONE', *, *, #118, .F. ) ;
#59 = DIRECTION ( 'NONE',  ( -0.0000000000000000000, 1.000000000000000000, -0.0000000000000000000 ) ) ;
#60 = DIRECTION ( 'NONE',  ( 0.0000000000000000000, 0.0000000000000000000, 1.000000000000000000 ) ) ;
#61 = FACE_OUTER_BOUND ( 'NONE', #95, .T. ) ;
#62 = EDGE_CURVE ( 'NONE', #72, #122, #205, .T. ) ;
#63 = CALENDAR_DATE ( 2017, 30, 11 ) ;
#64 = FACE_OUTER_BOUND ( 'NONE', #147, .T. ) ;
#65 = CLOSED_SHELL ( 'NONE', ( #232, #57, #2, #144, #42, #163 ) ) ;
#66 =( NAMED_UNIT ( * ) SI_UNIT ( $, .STERADIAN. ) SOLID_ANGLE_UNIT ( ) );
#67 = ORIENTED_EDGE ( 'NONE', *, *, #17, .T. ) ;
#68 = APPROVAL_ROLE ( '' ) ;
#69 = APPROVAL_STATUS ( 'not_yet_approved' ) ;
#70 = PERSON_AND_ORGANIZATION ( #231, #178 ) ;
#71 = EDGE_LOOP ( 'NONE', ( #90, #197 ) ) ;
#72 = VERTEX_POINT ( 'NONE', #21 ) ;
#73 = DIRECTION ( 'NONE',  ( 0.0000000000000000000, 0.0000000000000000000, 1.000000000000000000 ) ) ;
#74 = COORDINATED_UNIVERSAL_TIME_OFFSET ( 5, 0, .BEHIND. ) ;
#75 = CC_DESIGN_PERSON_AND_ORGANIZATION_ASSIGNMENT ( #22, #110, ( #241 ) ) ;
#76 = EDGE_CURVE ( 'NONE', #122, #98, #26, .T. ) ;
#77 = PERSON_AND_ORGANIZATION ( #231, #178 ) ;
#78 = AXIS2_PLACEMENT_3D ( 'NONE', #218, #9, #105 ) ;
#79 = DIRECTION ( 'NONE',  ( 0.0000000000000000000, 1.000000000000000000, 0.0000000000000000000 ) ) ;
#80 = DIRECTION ( 'NONE',  ( 0.0000000000000000000, 0.0000000000000000000, 1.000000000000000000 ) ) ;
#81 = ORIENTED_EDGE ( 'NONE', *, *, #233, .T. ) ;
#82 = DIRECTION ( 'NONE',  ( 0.0000000000000000000, 0.0000000000000000000, -1.000000000000000000 ) ) ;
#83 = COORDINATED_UNIVERSAL_TIME_OFFSET ( 5, 0, .BEHIND. ) ;
#84 = PRODUCT_RELATED_PRODUCT_CATEGORY ( 'detail', '', ( #52 ) ) ;
#85 = LINE ( 'NONE', #154, #94 ) ;
#86 = SECURITY_CLASSIFICATION_LEVEL ( 'unclassified' ) ;
#87 = DATE_TIME_ROLE ( 'creation_date' ) ;
#88 = EDGE_LOOP ( 'NONE', ( #13, #213, #5, #224 ) ) ;
#89 = CALENDAR_DATE ( 2017, 30, 11 ) ;
#90 = ORIENTED_EDGE ( 'NONE', *, *, #188, .T. ) ;
#91 = UNCERTAINTY_MEASURE_WITH_UNIT (LENGTH_MEASURE( 1.000000000000000100E-005 ), #174, 'distance_accuracy_value', 'NONE');
#92 = SECURITY_CLASSIFICATION ( '', '', #86 ) ;
#93 = AXIS2_PLACEMENT_3D ( 'NONE', #219, #25, #184 ) ;
#94 = VECTOR ( 'NONE', #12, 39.37007874015748100 ) ;
#95 = EDGE_LOOP ( 'NONE', ( #58, #212, #248, #112 ) ) ;
#96 = EDGE_CURVE ( 'NONE', #139, #244, #199, .T. ) ;
#97 = DATE_AND_TIME ( #63, #119 ) ;
#98 = VERTEX_POINT ( 'NONE', #4 ) ;
#99 = CARTESIAN_POINT ( 'NONE',  ( 0.0000000000000000000, 0.0000000000000000000, 0.0000000000000000000 ) ) ;
#100 = CARTESIAN_POINT ( 'NONE',  ( 0.0000000000000000000, 0.01600000000000000000, 0.0000000000000000000 ) ) ;
#101 = CALENDAR_DATE ( 2017, 30, 11 ) ;
#102 = VERTEX_POINT ( 'NONE', #24 ) ;
#103 = CARTESIAN_POINT ( 'NONE',  ( 0.0000000000000000000, 0.0000000000000000000, 0.0000000000000000000 ) ) ;
#104 = CC_DESIGN_DATE_AND_TIME_ASSIGNMENT ( #97, #242, ( #92 ) ) ;
#105 = DIRECTION ( 'NONE',  ( 0.0000000000000000000, -0.0000000000000000000, 1.000000000000000000 ) ) ;
#106 = CALENDAR_DATE ( 2017, 30, 11 ) ;
#107 = ORIENTED_EDGE ( 'NONE', *, *, #223, .T. ) ;
#108 = CC_DESIGN_DATE_AND_TIME_ASSIGNMENT ( #198, #87, ( #191 ) ) ;
#109 = DIRECTION ( 'NONE',  ( 0.0000000000000000000, 0.0000000000000000000, 1.000000000000000000 ) ) ;
#110 = PERSON_AND_ORGANIZATION_ROLE ( 'design_supplier' ) ;
#111 = PERSON_AND_ORGANIZATION ( #231, #178 ) ;
#112 = ORIENTED_EDGE ( 'NONE', *, *, #151, .T. ) ;
#113 = MANIFOLD_SOLID_BREP ( 'Cut-Extrude1', #65 ) ;
#114 = EDGE_LOOP ( 'NONE', ( #193, #54 ) ) ;
#115 = VECTOR ( 'NONE', #59, 39.37007874015748100 ) ;
#116 = CARTESIAN_POINT ( 'NONE',  ( 0.0000000000000000000, 0.0000000000000000000, 0.0000000000000000000 ) ) ;
#117 = CC_DESIGN_APPROVAL ( #228, ( #241 ) ) ;
#118 = EDGE_CURVE ( 'NONE', #165, #130, #160, .T. ) ;
#119 = LOCAL_TIME ( 11, 7, 24.00000000000000000, #177 ) ;
#120 = CYLINDRICAL_SURFACE ( 'NONE', #3, 0.3125000000000000000 ) ;
#121 = AXIS2_PLACEMENT_3D ( 'NONE', #129, #10, #153 ) ;
#122 = VERTEX_POINT ( 'NONE', #206 ) ;
#123 = DIRECTION ( 'NONE',  ( -0.0000000000000000000, -1.000000000000000000, -0.0000000000000000000 ) ) ;
#124 = CC_DESIGN_PERSON_AND_ORGANIZATION_ASSIGNMENT ( #111, #192, ( #191 ) ) ;
#125 = CIRCLE ( 'NONE', #51, 0.4375000000000000000 ) ;
#126 = DIRECTION ( 'NONE',  ( -0.0000000000000000000, 1.000000000000000000, -0.0000000000000000000 ) ) ;
#127 = DIRECTION ( 'NONE',  ( 0.0000000000000000000, 1.000000000000000000, 0.0000000000000000000 ) ) ;
#128 = APPROVAL_DATE_TIME ( #182, #228 ) ;
#129 = CARTESIAN_POINT ( 'NONE',  ( 0.0000000000000000000, 0.0000000000000000000, 0.0000000000000000000 ) ) ;
#130 = VERTEX_POINT ( 'NONE', #186 ) ;
#131 = CARTESIAN_POINT ( 'NONE',  ( 0.0000000000000000000, 0.0000000000000000000, -0.4375000000000000000 ) ) ;
#132 = MECHANICAL_CONTEXT ( 'NONE', #243, 'mechanical' ) ;
#133 = PERSON_AND_ORGANIZATION_ROLE ( 'classification_officer' ) ;
#134 = APPROVAL_PERSON_ORGANIZATION ( #247, #228, #227 ) ;
#135 = EDGE_CURVE ( 'NONE', #165, #139, #125, .T. ) ;
#136 = AXIS2_PLACEMENT_3D ( 'NONE', #236, #79, #217 ) ;
#137 = CC_DESIGN_PERSON_AND_ORGANIZATION_ASSIGNMENT ( #77, #36, ( #52 ) ) ;
#138 = PRODUCT_DEFINITION_SHAPE ( 'NONE', 'NONE',  #191 ) ;
#139 = VERTEX_POINT ( 'NONE', #44 ) ;
#140 = EDGE_CURVE ( 'NONE', #98, #102, #49, .T. ) ;
#141 = VECTOR ( 'NONE', #123, 39.37007874015748100 ) ;
#142 = CARTESIAN_POINT ( 'NONE',  ( 0.0000000000000000000, 0.01600000000000000000, 0.0000000000000000000 ) ) ;
#143 = LENGTH_MEASURE_WITH_UNIT ( LENGTH_MEASURE( 0.02539999999999999900 ), #172 );
#144 = ADVANCED_FACE ( 'NONE', ( #176, #252 ), #149, .T. ) ;
#145 = DIRECTION ( 'NONE',  ( -0.0000000000000000000, -1.000000000000000000, -0.0000000000000000000 ) ) ;
#146 = CARTESIAN_POINT ( 'NONE',  ( 0.0000000000000000000, 0.01600000000000000000, 0.0000000000000000000 ) ) ;
#147 = EDGE_LOOP ( 'NONE', ( #211, #81, #67, #161 ) ) ;
#148 = DIRECTION ( 'NONE',  ( 0.0000000000000000000, 1.000000000000000000, 0.0000000000000000000 ) ) ;
#149 = PLANE ( 'NONE',  #18 ) ;
#150 = APPROVAL_PERSON_ORGANIZATION ( #204, #16, #152 ) ;
#151 = EDGE_CURVE ( 'NONE', #244, #130, #15, .T. ) ;
#152 = APPROVAL_ROLE ( '' ) ;
#153 = DIRECTION ( 'NONE',  ( 0.0000000000000000000, 0.0000000000000000000, 1.000000000000000000 ) ) ;
#154 = CARTESIAN_POINT ( 'NONE',  ( 3.827021247335478900E-017, 0.0000000000000000000, -0.3125000000000000000 ) ) ;
#155 = CIRCLE ( 'NONE', #121, 0.4375000000000000000 ) ;
#156 = APPROVAL ( #175, 'UNSPECIFIED' ) ;
#157 = APPLICATION_CONTEXT ( 'configuration controlled 3d designs of mechanical parts and assemblies' ) ;
#158 = ORIENTED_EDGE ( 'NONE', *, *, #140, .F. ) ;
#159 = DATE_AND_TIME ( #89, #251 ) ;
#160 = LINE ( 'NONE', #235, #141 ) ;
#161 = ORIENTED_EDGE ( 'NONE', *, *, #76, .F. ) ;
#162 = PLANE ( 'NONE',  #78 ) ;
#163 = ADVANCED_FACE ( 'NONE', ( #40 ), #120, .F. ) ;
#164 = COORDINATED_UNIVERSAL_TIME_OFFSET ( 5, 0, .BEHIND. ) ;
#165 = VERTEX_POINT ( 'NONE', #167 ) ;
#166 = DIRECTION ( 'NONE',  ( 0.0000000000000000000, 1.000000000000000000, 0.0000000000000000000 ) ) ;
#167 = CARTESIAN_POINT ( 'NONE',  ( 5.357829746269670100E-017, 0.01600000000000000000, 0.4375000000000000000 ) ) ;
#168 =( GEOMETRIC_REPRESENTATION_CONTEXT ( 3 ) GLOBAL_UNCERTAINTY_ASSIGNED_CONTEXT ( ( #91 ) ) GLOBAL_UNIT_ASSIGNED_CONTEXT ( ( #174, #190, #66 ) ) REPRESENTATION_CONTEXT ( 'NONE', 'WORKASPACE' ) );
#169 = CIRCLE ( 'NONE', #171, 0.3125000000000000000 ) ;
#170 = DIRECTION ( 'NONE',  ( 0.0000000000000000000, 0.0000000000000000000, 1.000000000000000000 ) ) ;
#171 = AXIS2_PLACEMENT_3D ( 'NONE', #146, #166, #170 ) ;
#172 =( LENGTH_UNIT ( ) NAMED_UNIT ( * ) SI_UNIT ( $, .METRE. ) );
#173 = EDGE_LOOP ( 'NONE', ( #23, #220, #107, #45 ) ) ;
#174 =( CONVERSION_BASED_UNIT ( 'INCH', #143 ) LENGTH_UNIT ( ) NAMED_UNIT ( #249 ) );
#175 = APPROVAL_STATUS ( 'not_yet_approved' ) ;
#176 = FACE_BOUND ( 'NONE', #208, .T. ) ;
#177 = COORDINATED_UNIVERSAL_TIME_OFFSET ( 5, 0, .BEHIND. ) ;
#178 = ORGANIZATION ( 'UNSPECIFIED', 'UNSPECIFIED', '' ) ;
#179 = ORIENTED_EDGE ( 'NONE', *, *, #30, .T. ) ;
#180 = CIRCLE ( 'NONE', #41, 0.3125000000000000000 ) ;
#181 = AXIS2_PLACEMENT_3D ( 'NONE', #33, #109, #14 ) ;
#182 = DATE_AND_TIME ( #229, #31 ) ;
#183 = PERSON_AND_ORGANIZATION ( #231, #178 ) ;
#184 = DIRECTION ( 'NONE',  ( 0.0000000000000000000, 0.0000000000000000000, 1.000000000000000000 ) ) ;
#185 = DIRECTION ( 'NONE',  ( 0.0000000000000000000, 0.0000000000000000000, 1.000000000000000000 ) ) ;
#186 = CARTESIAN_POINT ( 'NONE',  ( 5.357829746269670100E-017, 0.0000000000000000000, 0.4375000000000000000 ) ) ;
#187 = CARTESIAN_POINT ( 'NONE',  ( 0.0000000000000000000, 0.0000000000000000000, 0.3125000000000000000 ) ) ;
#188 = EDGE_CURVE ( 'NONE', #139, #165, #37, .T. ) ;
#189 = DIRECTION ( 'NONE',  ( 0.0000000000000000000, 0.0000000000000000000, 1.000000000000000000 ) ) ;
#190 =( NAMED_UNIT ( * ) PLANE_ANGLE_UNIT ( ) SI_UNIT ( $, .RADIAN. ) );
#191 = PRODUCT_DEFINITION ( 'UNKNOWN', '', #241, #27 ) ;
#192 = PERSON_AND_ORGANIZATION_ROLE ( 'creator' ) ;
#193 = ORIENTED_EDGE ( 'NONE', *, *, #151, .F. ) ;
#194 = AXIS2_PLACEMENT_3D ( 'NONE', #56, #234, #7 ) ;
#195 = APPROVAL_DATE_TIME ( #48, #156 ) ;
#196 = FACE_BOUND ( 'NONE', #202, .T. ) ;
#197 = ORIENTED_EDGE ( 'NONE', *, *, #135, .T. ) ;
#198 = DATE_AND_TIME ( #101, #239 ) ;
#199 = LINE ( 'NONE', #216, #20 ) ;
#200 = DIRECTION ( 'NONE',  ( -0.0000000000000000000, 1.000000000000000000, -0.0000000000000000000 ) ) ;
#201 = CYLINDRICAL_SURFACE ( 'NONE', #53, 0.3125000000000000000 ) ;
#202 = EDGE_LOOP ( 'NONE', ( #179, #237 ) ) ;
#203 = CARTESIAN_POINT ( 'NONE',  ( 0.0000000000000000000, 0.01600000000000000000, 0.0000000000000000000 ) ) ;
#204 = PERSON_AND_ORGANIZATION ( #231, #178 ) ;
#205 = CIRCLE ( 'NONE', #230, 0.3125000000000000000 ) ;
#206 = CARTESIAN_POINT ( 'NONE',  ( 0.0000000000000000000, 0.0000000000000000000, 0.3125000000000000000 ) ) ;
#207 = CC_DESIGN_APPROVAL ( #16, ( #92 ) ) ;
#208 = EDGE_LOOP ( 'NONE', ( #158, #38 ) ) ;
#209 = APPROVAL_STATUS ( 'not_yet_approved' ) ;
#210 = COORDINATED_UNIVERSAL_TIME_OFFSET ( 5, 0, .BEHIND. ) ;
#211 = ORIENTED_EDGE ( 'NONE', *, *, #62, .F. ) ;
#212 = ORIENTED_EDGE ( 'NONE', *, *, #188, .F. ) ;
#213 = ORIENTED_EDGE ( 'NONE', *, *, #30, .F. ) ;
#214 = DIRECTION ( 'NONE',  ( 0.0000000000000000000, 1.000000000000000000, 0.0000000000000000000 ) ) ;
#215 = AXIS2_PLACEMENT_3D ( 'NONE', #203, #46, #185 ) ;
#216 = CARTESIAN_POINT ( 'NONE',  ( 0.0000000000000000000, 0.01600000000000000000, -0.4375000000000000000 ) ) ;
#217 = DIRECTION ( 'NONE',  ( 0.0000000000000000000, 0.0000000000000000000, 1.000000000000000000 ) ) ;
#218 = CARTESIAN_POINT ( 'NONE',  ( 0.0000000000000000000, 0.0000000000000000000, 0.0000000000000000000 ) ) ;
#219 = CARTESIAN_POINT ( 'NONE',  ( 0.0000000000000000000, 0.0000000000000000000, 0.0000000000000000000 ) ) ;
#220 = ORIENTED_EDGE ( 'NONE', *, *, #118, .T. ) ;
#221 = DIRECTION ( 'NONE',  ( 0.0000000000000000000, 0.0000000000000000000, 1.000000000000000000 ) ) ;
#222 = PERSON_AND_ORGANIZATION ( #231, #178 ) ;
#223 = EDGE_CURVE ( 'NONE', #130, #244, #155, .T. ) ;
#224 = ORIENTED_EDGE ( 'NONE', *, *, #140, .T. ) ;
#225 = APPLICATION_PROTOCOL_DEFINITION ( 'international standard', 'config_control_design', 1994, #243 ) ;
#226 = FACE_OUTER_BOUND ( 'NONE', #173, .T. ) ;
#227 = APPROVAL_ROLE ( '' ) ;
#228 = APPROVAL ( #209, 'UNSPECIFIED' ) ;
#229 = CALENDAR_DATE ( 2017, 30, 11 ) ;
#230 = AXIS2_PLACEMENT_3D ( 'NONE', #32, #8, #189 ) ;
#231 = PERSON ( 'UNSPECIFIED', 'UNSPECIFIED', 'UNSPECIFIED', ('UNSPECIFIED'), ('UNSPECIFIED'), ('UNSPECIFIED') ) ;
#232 = ADVANCED_FACE ( 'NONE', ( #64 ), #201, .F. ) ;
#233 = EDGE_CURVE ( 'NONE', #72, #102, #85, .T. ) ;
#234 = DIRECTION ( 'NONE',  ( -0.0000000000000000000, -1.000000000000000000, -0.0000000000000000000 ) ) ;
#235 = CARTESIAN_POINT ( 'NONE',  ( 5.357829746269670100E-017, 0.01600000000000000000, 0.4375000000000000000 ) ) ;
#236 = CARTESIAN_POINT ( 'NONE',  ( 0.0000000000000000000, 0.01600000000000000000, 0.0000000000000000000 ) ) ;
#237 = ORIENTED_EDGE ( 'NONE', *, *, #62, .T. ) ;
#238 = CARTESIAN_POINT ( 'NONE',  ( 0.0000000000000000000, 0.01600000000000000000, 0.0000000000000000000 ) ) ;
#239 = LOCAL_TIME ( 11, 7, 24.00000000000000000, #210 ) ;
#240 = CYLINDRICAL_SURFACE ( 'NONE', #194, 0.4375000000000000000 ) ;
#241 = PRODUCT_DEFINITION_FORMATION_WITH_SPECIFIED_SOURCE ( 'ANY', '', #52, .NOT_KNOWN. ) ;
#242 = DATE_TIME_ROLE ( 'classification_date' ) ;
#243 = APPLICATION_CONTEXT ( 'configuration controlled 3d designs of mechanical parts and assemblies' ) ;
#244 = VERTEX_POINT ( 'NONE', #131 ) ;
#245 = PERSON_AND_ORGANIZATION_ROLE ( 'creator' ) ;
#246 = ADVANCED_BREP_SHAPE_REPRESENTATION ( 'am-1444 Shim Washer For Shortening .625in Dia Screw Shoulder_0.016 Thick_18-8 Stainess Steel', ( #113, #181 ), #168 ) ;
#247 = PERSON_AND_ORGANIZATION ( #231, #178 ) ;
#248 = ORIENTED_EDGE ( 'NONE', *, *, #96, .T. ) ;
#249 = DIMENSIONAL_EXPONENTS ( 1.000000000000000000, 0.0000000000000000000, 0.0000000000000000000, 0.0000000000000000000, 0.0000000000000000000, 0.0000000000000000000, 0.0000000000000000000 ) ;
#250 = DIRECTION ( 'NONE',  ( -0.0000000000000000000, -1.000000000000000000, -0.0000000000000000000 ) ) ;
#251 = LOCAL_TIME ( 11, 7, 24.00000000000000000, #83 ) ;
#252 = FACE_OUTER_BOUND ( 'NONE', #71, .T. ) ;
ENDSEC;
END-ISO-10303-21;
