ISO-10303-21;
HEADER;
FILE_DESCRIPTION (( 'STEP AP214' ),
    '1' );
FILE_NAME ('am-2041 Modulox Extended Back Block.STEP',
    '2014-08-21T20:08:32',
    ( '' ),
    ( '' ),
    'SwSTEP 2.0',
    'SolidWorks 2014',
    '' );
FILE_SCHEMA (( 'AUTOMOTIVE_DESIGN' ));
ENDSEC;

DATA;
#1 = CARTESIAN_POINT ( 'NONE',  ( 0.0000000000000000000, 0.1399999999999998200, 0.0000000000000000000 ) ) ;
#2 = VECTOR ( 'NONE', #41, 39.37007874015748100 ) ;
#3 = EDGE_LOOP ( 'NONE', ( #245, #45, #116, #251, #16, #73, #147, #224 ) ) ;
#4 = CARTESIAN_POINT ( 'NONE',  ( 0.0000000000000000000, 0.1399999999999999900, -1.274999999999999900 ) ) ;
#5 = VECTOR ( 'NONE', #14, 39.37007874015748100 ) ;
#6 = CARTESIAN_POINT ( 'NONE',  ( 8.000000000000000000, 0.2500000000000000000, -1.274999999999999900 ) ) ;
#7 = CARTESIAN_POINT ( 'NONE',  ( 8.000000000000000000, 0.1399999999999998500, -0.1000000000000000200 ) ) ;
#8 = DIRECTION ( 'NONE',  ( -1.000000000000000000, -0.0000000000000000000, -0.0000000000000000000 ) ) ;
#9 = APPLICATION_CONTEXT ( 'automotive_design' ) ;
#10 = DIRECTION ( 'NONE',  ( 0.0000000000000000000, -1.453110634927799600E-016, 1.000000000000000000 ) ) ;
#11 = VERTEX_POINT ( 'NONE', #210 ) ;
#12 = DIRECTION ( 'NONE',  ( 0.0000000000000000000, -1.000000000000000000, 0.0000000000000000000 ) ) ;
#13 = CARTESIAN_POINT ( 'NONE',  ( 0.0000000000000000000, 0.2499999999999998300, -0.1000000000000000200 ) ) ;
#14 = DIRECTION ( 'NONE',  ( -1.000000000000000000, -0.0000000000000000000, -0.0000000000000000000 ) ) ;
#15 = CARTESIAN_POINT ( 'NONE',  ( 0.0000000000000000000, 0.0000000000000000000, 0.0000000000000000000 ) ) ;
#16 = ORIENTED_EDGE ( 'NONE', *, *, #173, .F. ) ;
#17 = ORIENTED_EDGE ( 'NONE', *, *, #165, .F. ) ;
#18 = EDGE_LOOP ( 'NONE', ( #244, #312, #44, #273 ) ) ;
#19 = EDGE_LOOP ( 'NONE', ( #89, #229, #39, #100 ) ) ;
#20 = ORIENTED_EDGE ( 'NONE', *, *, #203, .T. ) ;
#21 = ORIENTED_EDGE ( 'NONE', *, *, #326, .F. ) ;
#22 = ORIENTED_EDGE ( 'NONE', *, *, #156, .T. ) ;
#23 = APPLICATION_CONTEXT ( 'automotive_design' ) ;
#24 = LINE ( 'NONE', #54, #299 ) ;
#25 = CARTESIAN_POINT ( 'NONE',  ( 8.000000000000000000, 0.2499999999999998300, -0.1000000000000000200 ) ) ;
#26 = MANIFOLD_SOLID_BREP ( 'Boss-Extrude1', #205 ) ;
#27 = CARTESIAN_POINT ( 'NONE',  ( 0.0000000000000000000, 0.0000000000000000000, -1.375000000000000000 ) ) ;
#28 = DIRECTION ( 'NONE',  ( -1.000000000000000000, -0.0000000000000000000, -0.0000000000000000000 ) ) ;
#29 = DIRECTION ( 'NONE',  ( 0.0000000000000000000, -1.453110634927799600E-016, 1.000000000000000000 ) ) ;
#30 = DIRECTION ( 'NONE',  ( 0.0000000000000000000, 1.000000000000000000, 0.0000000000000000000 ) ) ;
#31 = VERTEX_POINT ( 'NONE', #184 ) ;
#32 = DIRECTION ( 'NONE',  ( 0.0000000000000000000, -1.707404996040164000E-016, 1.000000000000000000 ) ) ;
#33 = DIRECTION ( 'NONE',  ( 0.0000000000000000000, -1.707404996040164000E-016, 1.000000000000000000 ) ) ;
#34 = VECTOR ( 'NONE', #127, 39.37007874015748100 ) ;
#35 = CARTESIAN_POINT ( 'NONE',  ( 8.000000000000000000, 0.2500000000000000000, -1.274999999999999900 ) ) ;
#36 = FILL_AREA_STYLE ('',( #192 ) ) ;
#37 = LINE ( 'NONE', #168, #2 ) ;
#38 = LINE ( 'NONE', #202, #111 ) ;
#39 = ORIENTED_EDGE ( 'NONE', *, *, #181, .F. ) ;
#40 = UNCERTAINTY_MEASURE_WITH_UNIT (LENGTH_MEASURE( 1.000000000000000100E-005 ), #98, 'distance_accuracy_value', 'NONE');
#41 = DIRECTION ( 'NONE',  ( 0.0000000000000000000, -1.707404996040164000E-016, 1.000000000000000000 ) ) ;
#42 = LINE ( 'NONE', #105, #309 ) ;
#43 = ORIENTED_EDGE ( 'NONE', *, *, #165, .T. ) ;
#44 = ORIENTED_EDGE ( 'NONE', *, *, #335, .F. ) ;
#45 = ORIENTED_EDGE ( 'NONE', *, *, #201, .F. ) ;
#46 = FACE_OUTER_BOUND ( 'NONE', #158, .T. ) ;
#47 = CARTESIAN_POINT ( 'NONE',  ( 8.000000000000000000, 0.0000000000000000000, 0.0000000000000000000 ) ) ;
#48 =( NAMED_UNIT ( * ) SI_UNIT ( $, .STERADIAN. ) SOLID_ANGLE_UNIT ( ) );
#49 = ORIENTED_EDGE ( 'NONE', *, *, #275, .T. ) ;
#50 = VECTOR ( 'NONE', #321, 39.37007874015748100 ) ;
#51 = CARTESIAN_POINT ( 'NONE',  ( 8.000000000000000000, 0.1399999999999999900, -1.274999999999999900 ) ) ;
#52 = DIRECTION ( 'NONE',  ( 0.0000000000000000000, -1.707404996040164000E-016, 1.000000000000000000 ) ) ;
#53 = LINE ( 'NONE', #7, #190 ) ;
#54 = CARTESIAN_POINT ( 'NONE',  ( 8.000000000000000000, 0.2499999999999998300, -0.1000000000000000200 ) ) ;
#55 = SURFACE_STYLE_USAGE ( .BOTH. , #217 ) ;
#56 = CARTESIAN_POINT ( 'NONE',  ( 8.000000000000000000, 0.0000000000000000000, -1.375000000000000000 ) ) ;
#57 = DIRECTION ( 'NONE',  ( -1.000000000000000000, -0.0000000000000000000, -0.0000000000000000000 ) ) ;
#58 = PRODUCT ( 'am-2041 Modulox Extended Back Block', 'am-2041 Modulox Extended Back Block', '', ( #163 ) ) ;
#59 = LINE ( 'NONE', #15, #228 ) ;
#60 = EDGE_CURVE ( 'NONE', #185, #146, #93, .T. ) ;
#61 = VERTEX_POINT ( 'NONE', #25 ) ;
#62 = EDGE_CURVE ( 'NONE', #148, #208, #121, .T. ) ;
#63 = VECTOR ( 'NONE', #220, 39.37007874015748100 ) ;
#64 = DIRECTION ( 'NONE',  ( -1.000000000000000000, -0.0000000000000000000, -0.0000000000000000000 ) ) ;
#65 = EDGE_LOOP ( 'NONE', ( #292, #88, #293, #22 ) ) ;
#66 = ADVANCED_BREP_SHAPE_REPRESENTATION ( 'am-2041 Modulox Extended Back Block', ( #26, #269 ), #301 ) ;
#67 = LINE ( 'NONE', #268, #5 ) ;
#68 = ORIENTED_EDGE ( 'NONE', *, *, #201, .T. ) ;
#69 = ORIENTED_EDGE ( 'NONE', *, *, #248, .F. ) ;
#70 =( NAMED_UNIT ( * ) PLANE_ANGLE_UNIT ( ) SI_UNIT ( $, .RADIAN. ) );
#71 = CARTESIAN_POINT ( 'NONE',  ( 0.0000000000000000000, 0.0000000000000000000, 0.0000000000000000000 ) ) ;
#72 = CARTESIAN_POINT ( 'NONE',  ( 0.0000000000000000000, 0.1399999999999999900, -1.274999999999999900 ) ) ;
#73 = ORIENTED_EDGE ( 'NONE', *, *, #154, .F. ) ;
#74 = DIRECTION ( 'NONE',  ( 0.0000000000000000000, 0.0000000000000000000, -1.000000000000000000 ) ) ;
#75 = EDGE_LOOP ( 'NONE', ( #68, #144, #280, #99 ) ) ;
#76 =( LENGTH_UNIT ( ) NAMED_UNIT ( * ) SI_UNIT ( $, .METRE. ) );
#77 = DIMENSIONAL_EXPONENTS ( 1.000000000000000000, 0.0000000000000000000, 0.0000000000000000000, 0.0000000000000000000, 0.0000000000000000000, 0.0000000000000000000, 0.0000000000000000000 ) ;
#78 = CARTESIAN_POINT ( 'NONE',  ( 0.0000000000000000000, 0.1399999999999999900, -1.375000000000000000 ) ) ;
#79 =( CONVERSION_BASED_UNIT ( 'INCH', #172 ) LENGTH_UNIT ( ) NAMED_UNIT ( #77 ) );
#80 = ORIENTED_EDGE ( 'NONE', *, *, #323, .F. ) ;
#81 = DIRECTION ( 'NONE',  ( 0.0000000000000000000, 1.000000000000000000, 0.0000000000000000000 ) ) ;
#82 = DIRECTION ( 'NONE',  ( 1.000000000000000000, 0.0000000000000000000, 0.0000000000000000000 ) ) ;
#83 = VECTOR ( 'NONE', #29, 39.37007874015748100 ) ;
#84 = CARTESIAN_POINT ( 'NONE',  ( 0.0000000000000000000, 0.0000000000000000000, -1.375000000000000000 ) ) ;
#85 = CARTESIAN_POINT ( 'NONE',  ( 8.000000000000000000, 0.0000000000000000000, 0.0000000000000000000 ) ) ;
#86 = CARTESIAN_POINT ( 'NONE',  ( 0.0000000000000000000, 0.1399999999999999900, -1.375000000000000000 ) ) ;
#87 = VERTEX_POINT ( 'NONE', #1 ) ;
#88 = ORIENTED_EDGE ( 'NONE', *, *, #175, .F. ) ;
#89 = ORIENTED_EDGE ( 'NONE', *, *, #313, .T. ) ;
#90 = VECTOR ( 'NONE', #52, 39.37007874015748100 ) ;
#91 = LENGTH_MEASURE_WITH_UNIT ( LENGTH_MEASURE( 0.02539999999999999900 ), #101 );
#92 = ORIENTED_EDGE ( 'NONE', *, *, #60, .F. ) ;
#93 = LINE ( 'NONE', #47, #34 ) ;
#94 = LINE ( 'NONE', #78, #90 ) ;
#95 = DIMENSIONAL_EXPONENTS ( 1.000000000000000000, 0.0000000000000000000, 0.0000000000000000000, 0.0000000000000000000, 0.0000000000000000000, 0.0000000000000000000, 0.0000000000000000000 ) ;
#96 = VECTOR ( 'NONE', #30, 39.37007874015748100 ) ;
#97 = DIMENSIONAL_EXPONENTS ( 1.000000000000000000, 0.0000000000000000000, 0.0000000000000000000, 0.0000000000000000000, 0.0000000000000000000, 0.0000000000000000000, 0.0000000000000000000 ) ;
#98 =( CONVERSION_BASED_UNIT ( 'INCH', #91 ) LENGTH_UNIT ( ) NAMED_UNIT ( #95 ) );
#99 = ORIENTED_EDGE ( 'NONE', *, *, #196, .T. ) ;
#100 = ORIENTED_EDGE ( 'NONE', *, *, #175, .T. ) ;
#101 =( LENGTH_UNIT ( ) NAMED_UNIT ( * ) SI_UNIT ( $, .METRE. ) );
#102 = ADVANCED_FACE ( 'NONE', ( #331 ), #320, .F. ) ;
#103 = ORIENTED_EDGE ( 'NONE', *, *, #336, .T. ) ;
#104 = ADVANCED_FACE ( 'NONE', ( #254 ), #289, .F. ) ;
#105 = CARTESIAN_POINT ( 'NONE',  ( 8.000000000000000000, 0.1399999999999999900, -1.375000000000000000 ) ) ;
#106 = ADVANCED_FACE ( 'NONE', ( #46 ), #295, .F. ) ;
#107 = DIRECTION ( 'NONE',  ( 0.0000000000000000000, 1.707404996040164000E-016, -1.000000000000000000 ) ) ;
#108 =( NAMED_UNIT ( * ) PLANE_ANGLE_UNIT ( ) SI_UNIT ( $, .RADIAN. ) );
#109 =( NAMED_UNIT ( * ) SI_UNIT ( $, .STERADIAN. ) SOLID_ANGLE_UNIT ( ) );
#110 = DIRECTION ( 'NONE',  ( 0.0000000000000000000, -1.000000000000000000, -1.707404996040164000E-016 ) ) ;
#111 = VECTOR ( 'NONE', #64, 39.37007874015748100 ) ;
#112 = EDGE_CURVE ( 'NONE', #271, #208, #169, .T. ) ;
#113 = DIRECTION ( 'NONE',  ( 0.0000000000000000000, 0.0000000000000000000, -1.000000000000000000 ) ) ;
#114 = ORIENTED_EDGE ( 'NONE', *, *, #318, .T. ) ;
#115 = VERTEX_POINT ( 'NONE', #235 ) ;
#116 = ORIENTED_EDGE ( 'NONE', *, *, #194, .F. ) ;
#117 = DIRECTION ( 'NONE',  ( -1.000000000000000000, -0.0000000000000000000, -0.0000000000000000000 ) ) ;
#118 = FACE_OUTER_BOUND ( 'NONE', #290, .T. ) ;
#119 = ORIENTED_EDGE ( 'NONE', *, *, #247, .T. ) ;
#120 = ADVANCED_FACE ( 'NONE', ( #236 ), #240, .F. ) ;
#121 = LINE ( 'NONE', #27, #50 ) ;
#122 = ADVANCED_FACE ( 'NONE', ( #118 ), #261, .F. ) ;
#123 = VECTOR ( 'NONE', #294, 39.37007874015748100 ) ;
#124 = ADVANCED_FACE ( 'NONE', ( #187 ), #222, .F. ) ;
#125 = FILL_AREA_STYLE_COLOUR ( '', #328 ) ;
#126 = ADVANCED_FACE ( 'NONE', ( #316 ), #214, .F. ) ;
#127 = DIRECTION ( 'NONE',  ( -1.000000000000000000, -0.0000000000000000000, -0.0000000000000000000 ) ) ;
#128 = ADVANCED_FACE ( 'NONE', ( #237 ), #188, .F. ) ;
#129 = VECTOR ( 'NONE', #272, 39.37007874015748100 ) ;
#130 = CARTESIAN_POINT ( 'NONE',  ( 8.000000000000000000, 0.0000000000000000000, 0.0000000000000000000 ) ) ;
#131 = VERTEX_POINT ( 'NONE', #160 ) ;
#132 = ADVANCED_FACE ( 'NONE', ( #230 ), #135, .F. ) ;
#133 = PLANE ( 'NONE',  #291 ) ;
#134 = LINE ( 'NONE', #56, #262 ) ;
#135 = PLANE ( 'NONE',  #302 ) ;
#136 = ADVANCED_FACE ( 'NONE', ( #306 ), #133, .T. ) ;
#137 = CARTESIAN_POINT ( 'NONE',  ( 8.000000000000000000, 0.2499999999999998300, -0.1000000000000000200 ) ) ;
#138 = DIRECTION ( 'NONE',  ( -1.000000000000000000, 0.0000000000000000000, -0.0000000000000000000 ) ) ;
#139 = DIRECTION ( 'NONE',  ( 0.0000000000000000000, 0.0000000000000000000, 1.000000000000000000 ) ) ;
#140 = DIRECTION ( 'NONE',  ( 0.0000000000000000000, 0.0000000000000000000, -1.000000000000000000 ) ) ;
#141 = CARTESIAN_POINT ( 'NONE',  ( 8.000000000000000000, 0.1399999999999999900, -1.375000000000000000 ) ) ;
#142 = CARTESIAN_POINT ( 'NONE',  ( 8.000000000000000000, 0.0000000000000000000, -1.375000000000000000 ) ) ;
#143 = LINE ( 'NONE', #193, #63 ) ;
#144 = ORIENTED_EDGE ( 'NONE', *, *, #275, .F. ) ;
#145 = ORIENTED_EDGE ( 'NONE', *, *, #60, .T. ) ;
#146 = VERTEX_POINT ( 'NONE', #71 ) ;
#147 = ORIENTED_EDGE ( 'NONE', *, *, #62, .F. ) ;
#148 = VERTEX_POINT ( 'NONE', #84 ) ;
#149 = ORIENTED_EDGE ( 'NONE', *, *, #207, .T. ) ;
#150 = SURFACE_SIDE_STYLE ('',( #252 ) ) ;
#151 = SHAPE_DEFINITION_REPRESENTATION ( #310, #66 ) ;
#152 = LINE ( 'NONE', #6, #83 ) ;
#153 = CARTESIAN_POINT ( 'NONE',  ( 8.000000000000000000, 0.1399999999999998200, 0.0000000000000000000 ) ) ;
#154 = EDGE_CURVE ( 'NONE', #208, #177, #94, .T. ) ;
#155 = CARTESIAN_POINT ( 'NONE',  ( 8.000000000000000000, 0.1399999999999999900, -1.375000000000000000 ) ) ;
#156 = EDGE_CURVE ( 'NONE', #11, #177, #161, .T. ) ;
#157 = DIRECTION ( 'NONE',  ( 0.0000000000000000000, 0.0000000000000000000, -1.000000000000000000 ) ) ;
#158 = EDGE_LOOP ( 'NONE', ( #119, #197, #69, #145 ) ) ;
#159 = DIRECTION ( 'NONE',  ( 0.0000000000000000000, -1.000000000000000000, 0.0000000000000000000 ) ) ;
#160 = CARTESIAN_POINT ( 'NONE',  ( 8.000000000000000000, 0.2500000000000000000, -1.274999999999999900 ) ) ;
#161 = LINE ( 'NONE', #51, #180 ) ;
#162 = CARTESIAN_POINT ( 'NONE',  ( 8.000000000000000000, 0.1399999999999998200, 0.0000000000000000000 ) ) ;
#163 = PRODUCT_CONTEXT ( 'NONE', #9, 'mechanical' ) ;
#164 = DIRECTION ( 'NONE',  ( 1.000000000000000000, 0.0000000000000000000, 0.0000000000000000000 ) ) ;
#165 = EDGE_CURVE ( 'NONE', #271, #11, #42, .T. ) ;
#166 = CARTESIAN_POINT ( 'NONE',  ( 0.0000000000000000000, 0.2499999999999998300, -0.1000000000000000200 ) ) ;
#167 = DIRECTION ( 'NONE',  ( 0.0000000000000000000, 0.0000000000000000000, -1.000000000000000000 ) ) ;
#168 = CARTESIAN_POINT ( 'NONE',  ( 0.0000000000000000000, 0.1399999999999998500, -0.1000000000000000200 ) ) ;
#169 = LINE ( 'NONE', #238, #305 ) ;
#170 = VECTOR ( 'NONE', #28, 39.37007874015748100 ) ;
#171 = PRODUCT_DEFINITION_CONTEXT ( 'detailed design', #23, 'design' ) ;
#172 = LENGTH_MEASURE_WITH_UNIT ( LENGTH_MEASURE( 0.02539999999999999900 ), #239 );
#173 = EDGE_CURVE ( 'NONE', #177, #115, #174, .T. ) ;
#174 = LINE ( 'NONE', #72, #96 ) ;
#175 = EDGE_CURVE ( 'NONE', #131, #115, #241, .T. ) ;
#176 = ORIENTED_EDGE ( 'NONE', *, *, #326, .T. ) ;
#177 = VERTEX_POINT ( 'NONE', #4 ) ;
#178 = EDGE_LOOP ( 'NONE', ( #227, #279, #17, #225 ) ) ;
#179 = EDGE_CURVE ( 'NONE', #61, #303, #24, .T. ) ;
#180 = VECTOR ( 'NONE', #57, 39.37007874015748100 ) ;
#181 = EDGE_CURVE ( 'NONE', #131, #61, #152, .T. ) ;
#182 = ORIENTED_EDGE ( 'NONE', *, *, #181, .T. ) ;
#183 = VERTEX_POINT ( 'NONE', #153 ) ;
#184 = CARTESIAN_POINT ( 'NONE',  ( 0.0000000000000000000, 0.1399999999999998500, -0.1000000000000000200 ) ) ;
#185 = VERTEX_POINT ( 'NONE', #334 ) ;
#186 = PRESENTATION_STYLE_ASSIGNMENT (( #231 ) ) ;
#187 = FACE_OUTER_BOUND ( 'NONE', #65, .T. ) ;
#188 = PLANE ( 'NONE',  #307 ) ;
#189 = DIRECTION ( 'NONE',  ( 1.000000000000000000, 0.0000000000000000000, -0.0000000000000000000 ) ) ;
#190 = VECTOR ( 'NONE', #33, 39.37007874015748100 ) ;
#191 = CARTESIAN_POINT ( 'NONE',  ( 0.0000000000000000000, 0.0000000000000000000, 0.0000000000000000000 ) ) ;
#192 = FILL_AREA_STYLE_COLOUR ( '', #256 ) ;
#193 = CARTESIAN_POINT ( 'NONE',  ( 8.000000000000000000, 0.1399999999999999900, -1.274999999999999900 ) ) ;
#194 = EDGE_CURVE ( 'NONE', #303, #31, #283, .T. ) ;
#195 = DIRECTION ( 'NONE',  ( 0.0000000000000000000, 0.0000000000000000000, 1.000000000000000000 ) ) ;
#196 = EDGE_CURVE ( 'NONE', #286, #31, #38, .T. ) ;
#197 = ORIENTED_EDGE ( 'NONE', *, *, #207, .F. ) ;
#198 = LINE ( 'NONE', #85, #277 ) ;
#199 = UNCERTAINTY_MEASURE_WITH_UNIT (LENGTH_MEASURE( 1.000000000000000100E-005 ), #264, 'distance_accuracy_value', 'NONE');
#200 = LINE ( 'NONE', #137, #333 ) ;
#201 = EDGE_CURVE ( 'NONE', #31, #87, #37, .T. ) ;
#202 = CARTESIAN_POINT ( 'NONE',  ( 8.000000000000000000, 0.1399999999999998500, -0.1000000000000000200 ) ) ;
#203 = EDGE_CURVE ( 'NONE', #87, #146, #204, .T. ) ;
#204 = LINE ( 'NONE', #246, #129 ) ;
#205 = CLOSED_SHELL ( 'NONE', ( #128, #106, #122, #132, #124, #102, #104, #120, #136, #126 ) ) ;
#206 = VECTOR ( 'NONE', #10, 39.37007874015748100 ) ;
#207 = EDGE_CURVE ( 'NONE', #218, #148, #338, .T. ) ;
#208 = VERTEX_POINT ( 'NONE', #86 ) ;
#209 = APPLICATION_PROTOCOL_DEFINITION ( 'draft international standard', 'automotive_design', 1998, #23 ) ;
#210 = CARTESIAN_POINT ( 'NONE',  ( 8.000000000000000000, 0.1399999999999999900, -1.274999999999999900 ) ) ;
#211 = DIRECTION ( 'NONE',  ( 1.000000000000000000, 0.0000000000000000000, -0.0000000000000000000 ) ) ;
#212 = DIRECTION ( 'NONE',  ( 0.0000000000000000000, 0.0000000000000000000, 1.000000000000000000 ) ) ;
#213 = LINE ( 'NONE', #300, #206 ) ;
#214 = PLANE ( 'NONE',  #308 ) ;
#215 = CARTESIAN_POINT ( 'NONE',  ( 8.000000000000000000, 0.1399999999999999900, -1.274999999999999900 ) ) ;
#216 = CARTESIAN_POINT ( 'NONE',  ( 0.0000000000000000000, 0.0000000000000000000, 0.0000000000000000000 ) ) ;
#217 = SURFACE_SIDE_STYLE ('',( #270 ) ) ;
#218 = VERTEX_POINT ( 'NONE', #142 ) ;
#219 = ORIENTED_EDGE ( 'NONE', *, *, #62, .T. ) ;
#220 = DIRECTION ( 'NONE',  ( 0.0000000000000000000, 1.000000000000000000, 0.0000000000000000000 ) ) ;
#221 = DIRECTION ( 'NONE',  ( 0.0000000000000000000, 1.707404996040164000E-016, -1.000000000000000000 ) ) ;
#222 = PLANE ( 'NONE',  #319 ) ;
#223 = VECTOR ( 'NONE', #12, 39.37007874015748100 ) ;
#224 = ORIENTED_EDGE ( 'NONE', *, *, #247, .F. ) ;
#225 = ORIENTED_EDGE ( 'NONE', *, *, #112, .T. ) ;
#226 = CARTESIAN_POINT ( 'NONE',  ( 8.000000000000000000, 0.0000000000000000000, -1.375000000000000000 ) ) ;
#227 = ORIENTED_EDGE ( 'NONE', *, *, #154, .T. ) ;
#228 = VECTOR ( 'NONE', #167, 39.37007874015748100 ) ;
#229 = ORIENTED_EDGE ( 'NONE', *, *, #179, .F. ) ;
#230 = FACE_OUTER_BOUND ( 'NONE', #178, .T. ) ;
#231 = SURFACE_STYLE_USAGE ( .BOTH. , #150 ) ;
#232 = DIRECTION ( 'NONE',  ( -1.000000000000000000, -0.0000000000000000000, -0.0000000000000000000 ) ) ;
#233 = DIRECTION ( 'NONE',  ( 0.0000000000000000000, -1.000000000000000000, -1.707404996040164000E-016 ) ) ;
#234 = CARTESIAN_POINT ( 'NONE',  ( 8.000000000000000000, 0.1399999999999998500, -0.1000000000000000200 ) ) ;
#235 = CARTESIAN_POINT ( 'NONE',  ( 0.0000000000000000000, 0.2500000000000000000, -1.274999999999999900 ) ) ;
#236 = FACE_OUTER_BOUND ( 'NONE', #75, .T. ) ;
#237 = FACE_OUTER_BOUND ( 'NONE', #314, .T. ) ;
#238 = CARTESIAN_POINT ( 'NONE',  ( 8.000000000000000000, 0.1399999999999999900, -1.375000000000000000 ) ) ;
#239 =( LENGTH_UNIT ( ) NAMED_UNIT ( * ) SI_UNIT ( $, .METRE. ) );
#240 = PLANE ( 'NONE',  #327 ) ;
#241 = LINE ( 'NONE', #35, #170 ) ;
#242 = CARTESIAN_POINT ( 'NONE',  ( 8.000000000000000000, 0.0000000000000000000, -1.375000000000000000 ) ) ;
#243 = ORIENTED_EDGE ( 'NONE', *, *, #248, .T. ) ;
#244 = ORIENTED_EDGE ( 'NONE', *, *, #194, .T. ) ;
#245 = ORIENTED_EDGE ( 'NONE', *, *, #203, .F. ) ;
#246 = CARTESIAN_POINT ( 'NONE',  ( 0.0000000000000000000, 0.1399999999999998200, 0.0000000000000000000 ) ) ;
#247 = EDGE_CURVE ( 'NONE', #146, #148, #59, .T. ) ;
#248 = EDGE_CURVE ( 'NONE', #185, #218, #198, .T. ) ;
#249 = LENGTH_MEASURE_WITH_UNIT ( LENGTH_MEASURE( 0.02539999999999999900 ), #76 );
#250 = ORIENTED_EDGE ( 'NONE', *, *, #335, .T. ) ;
#251 = ORIENTED_EDGE ( 'NONE', *, *, #313, .F. ) ;
#252 = SURFACE_STYLE_FILL_AREA ( #257 ) ;
#253 = PRODUCT_RELATED_PRODUCT_CATEGORY ( 'part', '', ( #58 ) ) ;
#254 = FACE_OUTER_BOUND ( 'NONE', #18, .T. ) ;
#255 = PRODUCT_DEFINITION_FORMATION_WITH_SPECIFIED_SOURCE ( 'ANY', '', #58, .NOT_KNOWN. ) ;
#256 = COLOUR_RGB ( '',0.8941176470588234600, 0.9137254901960784000, 0.9294117647058823800 ) ;
#257 = FILL_AREA_STYLE ('',( #125 ) ) ;
#258 = VECTOR ( 'NONE', #117, 39.37007874015748100 ) ;
#259 = DIRECTION ( 'NONE',  ( -1.000000000000000000, 0.0000000000000000000, -0.0000000000000000000 ) ) ;
#260 = PRODUCT_DEFINITION ( 'UNKNOWN', '', #255, #171 ) ;
#261 = PLANE ( 'NONE',  #324 ) ;
#262 = VECTOR ( 'NONE', #81, 39.37007874015748100 ) ;
#263 = CARTESIAN_POINT ( 'NONE',  ( 8.000000000000000000, 0.1399999999999998200, 0.0000000000000000000 ) ) ;
#264 =( CONVERSION_BASED_UNIT ( 'INCH', #249 ) LENGTH_UNIT ( ) NAMED_UNIT ( #97 ) );
#265 = DIRECTION ( 'NONE',  ( 0.0000000000000000000, -0.0000000000000000000, 1.000000000000000000 ) ) ;
#266 =( NAMED_UNIT ( * ) PLANE_ANGLE_UNIT ( ) SI_UNIT ( $, .RADIAN. ) );
#267 = DIRECTION ( 'NONE',  ( -0.0000000000000000000, 1.000000000000000000, 0.0000000000000000000 ) ) ;
#268 = CARTESIAN_POINT ( 'NONE',  ( 8.000000000000000000, 0.1399999999999998200, 0.0000000000000000000 ) ) ;
#269 = AXIS2_PLACEMENT_3D ( 'NONE', #216, #139, #325 ) ;
#270 = SURFACE_STYLE_FILL_AREA ( #36 ) ;
#271 = VERTEX_POINT ( 'NONE', #141 ) ;
#272 = DIRECTION ( 'NONE',  ( 0.0000000000000000000, -1.000000000000000000, 0.0000000000000000000 ) ) ;
#273 = ORIENTED_EDGE ( 'NONE', *, *, #179, .T. ) ;
#274 =( GEOMETRIC_REPRESENTATION_CONTEXT ( 3 ) GLOBAL_UNCERTAINTY_ASSIGNED_CONTEXT ( ( #287 ) ) GLOBAL_UNIT_ASSIGNED_CONTEXT ( ( #79, #266, #109 ) ) REPRESENTATION_CONTEXT ( 'NONE', 'WORKASPACE' ) );
#275 = EDGE_CURVE ( 'NONE', #183, #87, #67, .T. ) ;
#276 = MECHANICAL_DESIGN_GEOMETRIC_PRESENTATION_REPRESENTATION (  '', ( #284 ), #274 ) ;
#277 = VECTOR ( 'NONE', #113, 39.37007874015748100 ) ;
#278 = EDGE_LOOP ( 'NONE', ( #176, #243, #311, #43, #114, #182, #250, #103 ) ) ;
#279 = ORIENTED_EDGE ( 'NONE', *, *, #156, .F. ) ;
#280 = ORIENTED_EDGE ( 'NONE', *, *, #336, .F. ) ;
#281 = ORIENTED_EDGE ( 'NONE', *, *, #112, .F. ) ;
#282 = PRESENTATION_LAYER_ASSIGNMENT (  '', '', ( #284 ) ) ;
#283 = LINE ( 'NONE', #13, #223 ) ;
#284 = STYLED_ITEM ( 'NONE', ( #304 ), #66 ) ;
#285 = CARTESIAN_POINT ( 'NONE',  ( 8.000000000000000000, 0.0000000000000000000, 0.0000000000000000000 ) ) ;
#286 = VERTEX_POINT ( 'NONE', #330 ) ;
#287 = UNCERTAINTY_MEASURE_WITH_UNIT (LENGTH_MEASURE( 1.000000000000000100E-005 ), #79, 'distance_accuracy_value', 'NONE');
#288 = DIRECTION ( 'NONE',  ( 0.0000000000000000000, 1.453110634927799600E-016, -1.000000000000000000 ) ) ;
#289 = PLANE ( 'NONE',  #332 ) ;
#290 = EDGE_LOOP ( 'NONE', ( #219, #281, #80, #149 ) ) ;
#291 = AXIS2_PLACEMENT_3D ( 'NONE', #130, #82, #74 ) ;
#292 = ORIENTED_EDGE ( 'NONE', *, *, #173, .T. ) ;
#293 = ORIENTED_EDGE ( 'NONE', *, *, #318, .F. ) ;
#294 = DIRECTION ( 'NONE',  ( 0.0000000000000000000, -1.000000000000000000, 0.0000000000000000000 ) ) ;
#295 = PLANE ( 'NONE',  #329 ) ;
#296 =( NAMED_UNIT ( * ) SI_UNIT ( $, .STERADIAN. ) SOLID_ANGLE_UNIT ( ) );
#297 = CARTESIAN_POINT ( 'NONE',  ( 8.000000000000000000, 0.2499999999999998300, -0.1000000000000000200 ) ) ;
#298 = DIRECTION ( 'NONE',  ( 0.0000000000000000000, -1.000000000000000000, -1.453110634927799600E-016 ) ) ;
#299 = VECTOR ( 'NONE', #8, 39.37007874015748100 ) ;
#300 = CARTESIAN_POINT ( 'NONE',  ( 0.0000000000000000000, 0.2500000000000000000, -1.274999999999999900 ) ) ;
#301 =( GEOMETRIC_REPRESENTATION_CONTEXT ( 3 ) GLOBAL_UNCERTAINTY_ASSIGNED_CONTEXT ( ( #199 ) ) GLOBAL_UNIT_ASSIGNED_CONTEXT ( ( #264, #108, #296 ) ) REPRESENTATION_CONTEXT ( 'NONE', 'WORKASPACE' ) );
#302 = AXIS2_PLACEMENT_3D ( 'NONE', #155, #110, #107 ) ;
#303 = VERTEX_POINT ( 'NONE', #166 ) ;
#304 = PRESENTATION_STYLE_ASSIGNMENT (( #55 ) ) ;
#305 = VECTOR ( 'NONE', #232, 39.37007874015748100 ) ;
#306 = FACE_OUTER_BOUND ( 'NONE', #278, .T. ) ;
#307 = AXIS2_PLACEMENT_3D ( 'NONE', #162, #140, #138 ) ;
#308 = AXIS2_PLACEMENT_3D ( 'NONE', #191, #164, #157 ) ;
#309 = VECTOR ( 'NONE', #32, 39.37007874015748100 ) ;
#310 = PRODUCT_DEFINITION_SHAPE ( 'NONE', 'NONE',  #260 ) ;
#311 = ORIENTED_EDGE ( 'NONE', *, *, #323, .T. ) ;
#312 = ORIENTED_EDGE ( 'NONE', *, *, #196, .F. ) ;
#313 = EDGE_CURVE ( 'NONE', #115, #303, #213, .T. ) ;
#314 = EDGE_LOOP ( 'NONE', ( #20, #92, #21, #49 ) ) ;
#315 = CARTESIAN_POINT ( 'NONE',  ( 8.000000000000000000, 0.2500000000000000000, -1.274999999999999900 ) ) ;
#316 = FACE_OUTER_BOUND ( 'NONE', #3, .T. ) ;
#317 = DIRECTION ( 'NONE',  ( 0.0000000000000000000, 0.0000000000000000000, -1.000000000000000000 ) ) ;
#318 = EDGE_CURVE ( 'NONE', #11, #131, #143, .T. ) ;
#319 = AXIS2_PLACEMENT_3D ( 'NONE', #215, #195, #189 ) ;
#320 = PLANE ( 'NONE',  #337 ) ;
#321 = DIRECTION ( 'NONE',  ( 0.0000000000000000000, 1.000000000000000000, 0.0000000000000000000 ) ) ;
#322 = APPLICATION_PROTOCOL_DEFINITION ( 'draft international standard', 'automotive_design', 1998, #9 ) ;
#323 = EDGE_CURVE ( 'NONE', #218, #271, #134, .T. ) ;
#324 = AXIS2_PLACEMENT_3D ( 'NONE', #242, #212, #211 ) ;
#325 = DIRECTION ( 'NONE',  ( 1.000000000000000000, 0.0000000000000000000, 0.0000000000000000000 ) ) ;
#326 = EDGE_CURVE ( 'NONE', #183, #185, #342, .T. ) ;
#327 = AXIS2_PLACEMENT_3D ( 'NONE', #234, #233, #221 ) ;
#328 = COLOUR_RGB ( '',0.8941176470588234600, 0.9137254901960784000, 0.9294117647058823800 ) ;
#329 = AXIS2_PLACEMENT_3D ( 'NONE', #285, #267, #265 ) ;
#330 = CARTESIAN_POINT ( 'NONE',  ( 8.000000000000000000, 0.1399999999999998500, -0.1000000000000000200 ) ) ;
#331 = FACE_OUTER_BOUND ( 'NONE', #19, .T. ) ;
#332 = AXIS2_PLACEMENT_3D ( 'NONE', #297, #317, #259 ) ;
#333 = VECTOR ( 'NONE', #159, 39.37007874015748100 ) ;
#334 = CARTESIAN_POINT ( 'NONE',  ( 8.000000000000000000, 0.0000000000000000000, 0.0000000000000000000 ) ) ;
#335 = EDGE_CURVE ( 'NONE', #61, #286, #200, .T. ) ;
#336 = EDGE_CURVE ( 'NONE', #286, #183, #53, .T. ) ;
#337 = AXIS2_PLACEMENT_3D ( 'NONE', #315, #298, #288 ) ;
#338 = LINE ( 'NONE', #226, #258 ) ;
#339 =( GEOMETRIC_REPRESENTATION_CONTEXT ( 3 ) GLOBAL_UNCERTAINTY_ASSIGNED_CONTEXT ( ( #40 ) ) GLOBAL_UNIT_ASSIGNED_CONTEXT ( ( #98, #70, #48 ) ) REPRESENTATION_CONTEXT ( 'NONE', 'WORKASPACE' ) );
#340 = STYLED_ITEM ( 'NONE', ( #186 ), #26 ) ;
#341 = MECHANICAL_DESIGN_GEOMETRIC_PRESENTATION_REPRESENTATION (  '', ( #340 ), #339 ) ;
#342 = LINE ( 'NONE', #263, #123 ) ;
#343 = PRESENTATION_LAYER_ASSIGNMENT (  '', '', ( #340 ) ) ;
ENDSEC;
END-ISO-10303-21;
