ISO-10303-21;
HEADER;
FILE_DESCRIPTION (( 'STEP AP214' ),
    '1' );
FILE_NAME ('am-2242 1.8 inch x 0.375'''' Spacer.STEP',
    '2014-08-21T20:17:57',
    ( '' ),
    ( '' ),
    'SwSTEP 2.0',
    'SolidWorks 2014',
    '' );
FILE_SCHEMA (( 'AUTOMOTIVE_DESIGN' ));
ENDSEC;

DATA;
#1 = VERTEX_POINT ( 'NONE', #147 ) ;
#2 = PLANE ( 'NONE',  #91 ) ;
#3 = LINE ( 'NONE', #37, #270 ) ;
#4 = SURFACE_STYLE_USAGE ( .BOTH. , #35 ) ;
#5 = EDGE_LOOP ( 'NONE', ( #125, #126, #202, #265 ) ) ;
#6 = LENGTH_MEASURE_WITH_UNIT ( LENGTH_MEASURE( 0.02539999999999999900 ), #286 );
#7 = SURFACE_SIDE_STYLE ('',( #226 ) ) ;
#8 = FILL_AREA_STYLE ('',( #47 ) ) ;
#9 = ORIENTED_EDGE ( 'NONE', *, *, #331, .F. ) ;
#10 = SHAPE_DEFINITION_REPRESENTATION ( #141, #165 ) ;
#11 = APPLICATION_PROTOCOL_DEFINITION ( 'draft international standard', 'automotive_design', 1998, #28 ) ;
#12 = PRODUCT_DEFINITION_FORMATION_WITH_SPECIFIED_SOURCE ( 'ANY', '', #52, .NOT_KNOWN. ) ;
#13 = PRODUCT_DEFINITION ( 'UNKNOWN', '', #12, #161 ) ;
#14 =( GEOMETRIC_REPRESENTATION_CONTEXT ( 3 ) GLOBAL_UNCERTAINTY_ASSIGNED_CONTEXT ( ( #307 ) ) GLOBAL_UNIT_ASSIGNED_CONTEXT ( ( #102, #98, #69 ) ) REPRESENTATION_CONTEXT ( 'NONE', 'WORKASPACE' ) );
#15 = DIRECTION ( 'NONE',  ( 1.000000000000000000, 0.0000000000000000000, 0.0000000000000000000 ) ) ;
#16 = LENGTH_MEASURE_WITH_UNIT ( LENGTH_MEASURE( 0.02539999999999999900 ), #87 );
#17 = FILL_AREA_STYLE_COLOUR ( '', #110 ) ;
#18 = CARTESIAN_POINT ( 'NONE',  ( 2.326828918379970900E-017, 1.799999999999999800, 0.1899999999999999700 ) ) ;
#19 = DIRECTION ( 'NONE',  ( 0.0000000000000000000, 0.0000000000000000000, -1.000000000000000000 ) ) ;
#20 = CARTESIAN_POINT ( 'NONE',  ( 0.0000000000000000000, 1.799999999999999800, 0.0000000000000000000 ) ) ;
#21 = DIRECTION ( 'NONE',  ( 0.0000000000000000000, 0.0000000000000000000, 1.000000000000000000 ) ) ;
#22 = DIRECTION ( 'NONE',  ( 0.0000000000000000000, 1.000000000000000000, 0.0000000000000000000 ) ) ;
#23 = CARTESIAN_POINT ( 'NONE',  ( 0.0000000000000000000, 0.0000000000000000000, 0.0000000000000000000 ) ) ;
#24 = COLOUR_RGB ( '',0.8313725490196077800, 0.6705882352941176000, 0.1294117647058823400 ) ;
#25 = FILL_AREA_STYLE_COLOUR ( '', #24 ) ;
#26 = CARTESIAN_POINT ( 'NONE',  ( 0.0000000000000000000, 1.799999999999999800, -0.2200000000000000000 ) ) ;
#27 = DIRECTION ( 'NONE',  ( 0.0000000000000000000, 0.0000000000000000000, 1.000000000000000000 ) ) ;
#28 = APPLICATION_CONTEXT ( 'automotive_design' ) ;
#29 = SURFACE_STYLE_USAGE ( .BOTH. , #51 ) ;
#30 = SURFACE_STYLE_FILL_AREA ( #189 ) ;
#31 = PRESENTATION_STYLE_ASSIGNMENT (( #29 ) ) ;
#32 = ORIENTED_EDGE ( 'NONE', *, *, #331, .T. ) ;
#33 = ORIENTED_EDGE ( 'NONE', *, *, #298, .T. ) ;
#34 = APPLICATION_CONTEXT ( 'automotive_design' ) ;
#35 = SURFACE_SIDE_STYLE ('',( #48 ) ) ;
#36 = SURFACE_STYLE_FILL_AREA ( #188 ) ;
#37 = CARTESIAN_POINT ( 'NONE',  ( 0.0000000000000000000, 1.799999999999999800, -0.1899999999999999700 ) ) ;
#38 = VERTEX_POINT ( 'NONE', #106 ) ;
#39 = FILL_AREA_STYLE ('',( #25 ) ) ;
#40 = LINE ( 'NONE', #314, #247 ) ;
#41 = DIRECTION ( 'NONE',  ( 0.0000000000000000000, 1.000000000000000000, 0.0000000000000000000 ) ) ;
#42 = ORIENTED_EDGE ( 'NONE', *, *, #302, .T. ) ;
#43 =( LENGTH_UNIT ( ) NAMED_UNIT ( * ) SI_UNIT ( $, .METRE. ) );
#44 = EDGE_LOOP ( 'NONE', ( #33, #320, #191, #249 ) ) ;
#45 = CARTESIAN_POINT ( 'NONE',  ( 0.0000000000000000000, 0.0000000000000000000, 0.0000000000000000000 ) ) ;
#46 = LENGTH_MEASURE_WITH_UNIT ( LENGTH_MEASURE( 0.02539999999999999900 ), #131 );
#47 = FILL_AREA_STYLE_COLOUR ( '', #305 ) ;
#48 = SURFACE_STYLE_FILL_AREA ( #39 ) ;
#49 = DIMENSIONAL_EXPONENTS ( 1.000000000000000000, 0.0000000000000000000, 0.0000000000000000000, 0.0000000000000000000, 0.0000000000000000000, 0.0000000000000000000, 0.0000000000000000000 ) ;
#50 = AXIS2_PLACEMENT_3D ( 'NONE', #170, #180, #15 ) ;
#51 = SURFACE_SIDE_STYLE ('',( #312 ) ) ;
#52 = PRODUCT ( 'am-2242 1.8 inch x 0.375'''''''' Spacer', 'am-2242 1.8 inch x 0.375'''''''' Spacer', '', ( #209 ) ) ;
#53 = FACE_OUTER_BOUND ( 'NONE', #5, .T. ) ;
#54 =( NAMED_UNIT ( * ) PLANE_ANGLE_UNIT ( ) SI_UNIT ( $, .RADIAN. ) );
#55 = SURFACE_SIDE_STYLE ('',( #114 ) ) ;
#56 = LINE ( 'NONE', #18, #330 ) ;
#57 =( CONVERSION_BASED_UNIT ( 'INCH', #96 ) LENGTH_UNIT ( ) NAMED_UNIT ( #133 ) );
#58 = ORIENTED_EDGE ( 'NONE', *, *, #276, .F. ) ;
#59 = EDGE_LOOP ( 'NONE', ( #144, #190 ) ) ;
#60 = CIRCLE ( 'NONE', #88, 0.1899999999999999700 ) ;
#61 = ORIENTED_EDGE ( 'NONE', *, *, #146, .F. ) ;
#62 =( GEOMETRIC_REPRESENTATION_CONTEXT ( 3 ) GLOBAL_UNCERTAINTY_ASSIGNED_CONTEXT ( ( #177 ) ) GLOBAL_UNIT_ASSIGNED_CONTEXT ( ( #271, #313, #163 ) ) REPRESENTATION_CONTEXT ( 'NONE', 'WORKASPACE' ) );
#63 = ADVANCED_FACE ( 'NONE', ( #245 ), #311, .F. ) ;
#64 = MECHANICAL_DESIGN_GEOMETRIC_PRESENTATION_REPRESENTATION (  '', ( #123 ), #14 ) ;
#65 = ADVANCED_FACE ( 'NONE', ( #231, #233 ), #264, .F. ) ;
#66 = COLOUR_RGB ( '',0.8313725490196077800, 0.6705882352941176000, 0.1294117647058823400 ) ;
#67 = CARTESIAN_POINT ( 'NONE',  ( 0.0000000000000000000, 0.0000000000000000000, -0.2200000000000000000 ) ) ;
#68 = AXIS2_PLACEMENT_3D ( 'NONE', #185, #213, #210 ) ;
#69 =( NAMED_UNIT ( * ) SI_UNIT ( $, .STERADIAN. ) SOLID_ANGLE_UNIT ( ) );
#70 = MECHANICAL_DESIGN_GEOMETRIC_PRESENTATION_REPRESENTATION (  '', ( #77 ), #62 ) ;
#71 = UNCERTAINTY_MEASURE_WITH_UNIT (LENGTH_MEASURE( 1.000000000000000100E-005 ), #101, 'distance_accuracy_value', 'NONE');
#72 = SURFACE_STYLE_USAGE ( .BOTH. , #111 ) ;
#73 = CARTESIAN_POINT ( 'NONE',  ( 2.326828918379970900E-017, 0.0000000000000000000, 0.1899999999999999700 ) ) ;
#74 = PRESENTATION_LAYER_ASSIGNMENT (  '', '', ( #77 ) ) ;
#75 = ADVANCED_FACE ( 'NONE', ( #53 ), #95, .T. ) ;
#76 = FILL_AREA_STYLE_COLOUR ( '', #66 ) ;
#77 = STYLED_ITEM ( 'NONE', ( #230 ), #165 ) ;
#78 = UNCERTAINTY_MEASURE_WITH_UNIT (LENGTH_MEASURE( 1.000000000000000100E-005 ), #57, 'distance_accuracy_value', 'NONE');
#79 = PRODUCT_RELATED_PRODUCT_CATEGORY ( 'part', '', ( #52 ) ) ;
#80 = CARTESIAN_POINT ( 'NONE',  ( 2.326828918379970900E-017, 1.799999999999999800, 0.1899999999999999700 ) ) ;
#81 =( GEOMETRIC_REPRESENTATION_CONTEXT ( 3 ) GLOBAL_UNCERTAINTY_ASSIGNED_CONTEXT ( ( #292 ) ) GLOBAL_UNIT_ASSIGNED_CONTEXT ( ( #301, #152, #325 ) ) REPRESENTATION_CONTEXT ( 'NONE', 'WORKASPACE' ) );
#82 = AXIS2_PLACEMENT_3D ( 'NONE', #239, #85, #269 ) ;
#83 = AXIS2_PLACEMENT_3D ( 'NONE', #259, #104, #290 ) ;
#84 = DIRECTION ( 'NONE',  ( 0.0000000000000000000, 0.0000000000000000000, -1.000000000000000000 ) ) ;
#85 = DIRECTION ( 'NONE',  ( 0.0000000000000000000, 1.000000000000000000, 0.0000000000000000000 ) ) ;
#86 = AXIS2_PLACEMENT_3D ( 'NONE', #100, #285, #130 ) ;
#87 =( LENGTH_UNIT ( ) NAMED_UNIT ( * ) SI_UNIT ( $, .METRE. ) );
#88 = AXIS2_PLACEMENT_3D ( 'NONE', #217, #128, #182 ) ;
#89 =( NAMED_UNIT ( * ) SI_UNIT ( $, .STERADIAN. ) SOLID_ANGLE_UNIT ( ) );
#90 = AXIS2_PLACEMENT_3D ( 'NONE', #263, #107, #295 ) ;
#91 = AXIS2_PLACEMENT_3D ( 'NONE', #115, #304, #157 ) ;
#92 = AXIS2_PLACEMENT_3D ( 'NONE', #99, #283, #129 ) ;
#93 = CIRCLE ( 'NONE', #197, 0.2200000000000000000 ) ;
#94 =( GEOMETRIC_REPRESENTATION_CONTEXT ( 3 ) GLOBAL_UNCERTAINTY_ASSIGNED_CONTEXT ( ( #78 ) ) GLOBAL_UNIT_ASSIGNED_CONTEXT ( ( #57, #242, #89 ) ) REPRESENTATION_CONTEXT ( 'NONE', 'WORKASPACE' ) );
#95 = CYLINDRICAL_SURFACE ( 'NONE', #158, 0.2200000000000000000 ) ;
#96 = LENGTH_MEASURE_WITH_UNIT ( LENGTH_MEASURE( 0.02539999999999999900 ), #222 );
#97 = MECHANICAL_DESIGN_GEOMETRIC_PRESENTATION_REPRESENTATION (  '', ( #118 ), #94 ) ;
#98 =( NAMED_UNIT ( * ) PLANE_ANGLE_UNIT ( ) SI_UNIT ( $, .RADIAN. ) );
#99 = CARTESIAN_POINT ( 'NONE',  ( 0.0000000000000000000, 1.799999999999999800, 0.0000000000000000000 ) ) ;
#100 = CARTESIAN_POINT ( 'NONE',  ( 0.0000000000000000000, 1.799999999999999800, 0.0000000000000000000 ) ) ;
#101 =( CONVERSION_BASED_UNIT ( 'INCH', #6 ) LENGTH_UNIT ( ) NAMED_UNIT ( #179 ) );
#102 =( CONVERSION_BASED_UNIT ( 'INCH', #46 ) LENGTH_UNIT ( ) NAMED_UNIT ( #166 ) );
#103 = AXIS2_PLACEMENT_3D ( 'NONE', #20, #167, #19 ) ;
#104 = DIRECTION ( 'NONE',  ( 0.0000000000000000000, 1.000000000000000000, 0.0000000000000000000 ) ) ;
#105 = LENGTH_MEASURE_WITH_UNIT ( LENGTH_MEASURE( 0.02539999999999999900 ), #237 );
#106 = CARTESIAN_POINT ( 'NONE',  ( 0.0000000000000000000, 0.0000000000000000000, -0.1899999999999999700 ) ) ;
#107 = DIRECTION ( 'NONE',  ( 0.0000000000000000000, 1.000000000000000000, 0.0000000000000000000 ) ) ;
#108 = PRESENTATION_STYLE_ASSIGNMENT (( #258 ) ) ;
#109 =( NAMED_UNIT ( * ) SI_UNIT ( $, .STERADIAN. ) SOLID_ANGLE_UNIT ( ) );
#110 = COLOUR_RGB ( '',0.8313725490196077800, 0.6705882352941176000, 0.1294117647058823400 ) ;
#111 = SURFACE_SIDE_STYLE ('',( #184 ) ) ;
#112 = PRESENTATION_STYLE_ASSIGNMENT (( #72 ) ) ;
#113 =( LENGTH_UNIT ( ) NAMED_UNIT ( * ) SI_UNIT ( $, .METRE. ) );
#114 = SURFACE_STYLE_FILL_AREA ( #221 ) ;
#115 = CARTESIAN_POINT ( 'NONE',  ( 0.0000000000000000000, 1.799999999999999800, 0.0000000000000000000 ) ) ;
#116 = ORIENTED_EDGE ( 'NONE', *, *, #303, .F. ) ;
#117 = EDGE_LOOP ( 'NONE', ( #206, #58 ) ) ;
#118 = STYLED_ITEM ( 'NONE', ( #31 ), #225 ) ;
#119 = FACE_OUTER_BOUND ( 'NONE', #44, .T. ) ;
#120 = EDGE_LOOP ( 'NONE', ( #32, #42 ) ) ;
#121 = VECTOR ( 'NONE', #192, 39.37007874015748100 ) ;
#122 = DIMENSIONAL_EXPONENTS ( 1.000000000000000000, 0.0000000000000000000, 0.0000000000000000000, 0.0000000000000000000, 0.0000000000000000000, 0.0000000000000000000, 0.0000000000000000000 ) ;
#123 = STYLED_ITEM ( 'NONE', ( #243 ), #224 ) ;
#124 = EDGE_LOOP ( 'NONE', ( #319, #326, #137, #273 ) ) ;
#125 = ORIENTED_EDGE ( 'NONE', *, *, #302, .F. ) ;
#126 = ORIENTED_EDGE ( 'NONE', *, *, #303, .T. ) ;
#127 = PRESENTATION_LAYER_ASSIGNMENT (  '', '', ( #123 ) ) ;
#128 = DIRECTION ( 'NONE',  ( 0.0000000000000000000, 1.000000000000000000, 0.0000000000000000000 ) ) ;
#129 = DIRECTION ( 'NONE',  ( 0.0000000000000000000, 0.0000000000000000000, 1.000000000000000000 ) ) ;
#130 = DIRECTION ( 'NONE',  ( 0.0000000000000000000, 0.0000000000000000000, 1.000000000000000000 ) ) ;
#131 =( LENGTH_UNIT ( ) NAMED_UNIT ( * ) SI_UNIT ( $, .METRE. ) );
#132 = CIRCLE ( 'NONE', #86, 0.2200000000000000000 ) ;
#133 = DIMENSIONAL_EXPONENTS ( 1.000000000000000000, 0.0000000000000000000, 0.0000000000000000000, 0.0000000000000000000, 0.0000000000000000000, 0.0000000000000000000, 0.0000000000000000000 ) ;
#134 = SURFACE_STYLE_USAGE ( .BOTH. , #164 ) ;
#135 =( GEOMETRIC_REPRESENTATION_CONTEXT ( 3 ) GLOBAL_UNCERTAINTY_ASSIGNED_CONTEXT ( ( #194 ) ) GLOBAL_UNIT_ASSIGNED_CONTEXT ( ( #257, #255, #229 ) ) REPRESENTATION_CONTEXT ( 'NONE', 'WORKASPACE' ) );
#136 = MECHANICAL_DESIGN_GEOMETRIC_PRESENTATION_REPRESENTATION (  '', ( #148 ), #135 ) ;
#137 = ORIENTED_EDGE ( 'NONE', *, *, #297, .T. ) ;
#138 = CARTESIAN_POINT ( 'NONE',  ( 0.0000000000000000000, 1.799999999999999800, 0.0000000000000000000 ) ) ;
#139 =( NAMED_UNIT ( * ) PLANE_ANGLE_UNIT ( ) SI_UNIT ( $, .RADIAN. ) );
#140 = PRESENTATION_LAYER_ASSIGNMENT (  '', '', ( #148 ) ) ;
#141 = PRODUCT_DEFINITION_SHAPE ( 'NONE', 'NONE',  #13 ) ;
#142 = EDGE_CURVE ( 'NONE', #327, #38, #296, .T. ) ;
#143 =( CONVERSION_BASED_UNIT ( 'INCH', #235 ) LENGTH_UNIT ( ) NAMED_UNIT ( #145 ) );
#144 = ORIENTED_EDGE ( 'NONE', *, *, #293, .T. ) ;
#145 = DIMENSIONAL_EXPONENTS ( 1.000000000000000000, 0.0000000000000000000, 0.0000000000000000000, 0.0000000000000000000, 0.0000000000000000000, 0.0000000000000000000, 0.0000000000000000000 ) ;
#146 = EDGE_CURVE ( 'NONE', #324, #1, #93, .T. ) ;
#147 = CARTESIAN_POINT ( 'NONE',  ( 2.694222958124177300E-017, 0.0000000000000000000, 0.2200000000000000000 ) ) ;
#148 = STYLED_ITEM ( 'NONE', ( #328 ), #205 ) ;
#149 =( LENGTH_UNIT ( ) NAMED_UNIT ( * ) SI_UNIT ( $, .METRE. ) );
#150 =( GEOMETRIC_REPRESENTATION_CONTEXT ( 3 ) GLOBAL_UNCERTAINTY_ASSIGNED_CONTEXT ( ( #71 ) ) GLOBAL_UNIT_ASSIGNED_CONTEXT ( ( #101, #289, #315 ) ) REPRESENTATION_CONTEXT ( 'NONE', 'WORKASPACE' ) );
#151 = MECHANICAL_DESIGN_GEOMETRIC_PRESENTATION_REPRESENTATION (  '', ( #155 ), #150 ) ;
#152 =( NAMED_UNIT ( * ) PLANE_ANGLE_UNIT ( ) SI_UNIT ( $, .RADIAN. ) );
#153 = CIRCLE ( 'NONE', #90, 0.1899999999999999700 ) ;
#154 = PRESENTATION_LAYER_ASSIGNMENT (  '', '', ( #155 ) ) ;
#155 = STYLED_ITEM ( 'NONE', ( #173 ), #203 ) ;
#156 = ORIENTED_EDGE ( 'NONE', *, *, #306, .F. ) ;
#157 = DIRECTION ( 'NONE',  ( 0.0000000000000000000, -0.0000000000000000000, 1.000000000000000000 ) ) ;
#158 = AXIS2_PLACEMENT_3D ( 'NONE', #195, #266, #84 ) ;
#159 = AXIS2_PLACEMENT_3D ( 'NONE', #45, #41, #27 ) ;
#160 = VERTEX_POINT ( 'NONE', #80 ) ;
#161 = PRODUCT_DEFINITION_CONTEXT ( 'detailed design', #34, 'design' ) ;
#162 = DIMENSIONAL_EXPONENTS ( 1.000000000000000000, 0.0000000000000000000, 0.0000000000000000000, 0.0000000000000000000, 0.0000000000000000000, 0.0000000000000000000, 0.0000000000000000000 ) ;
#163 =( NAMED_UNIT ( * ) SI_UNIT ( $, .STERADIAN. ) SOLID_ANGLE_UNIT ( ) );
#164 = SURFACE_SIDE_STYLE ('',( #36 ) ) ;
#165 = ADVANCED_BREP_SHAPE_REPRESENTATION ( 'am-2242 1.8 inch x 0.375'''''''' Spacer', ( #203, #50 ), #81 ) ;
#166 = DIMENSIONAL_EXPONENTS ( 1.000000000000000000, 0.0000000000000000000, 0.0000000000000000000, 0.0000000000000000000, 0.0000000000000000000, 0.0000000000000000000, 0.0000000000000000000 ) ;
#167 = DIRECTION ( 'NONE',  ( -0.0000000000000000000, -1.000000000000000000, -0.0000000000000000000 ) ) ;
#168 = SURFACE_STYLE_USAGE ( .BOTH. , #7 ) ;
#169 = SURFACE_STYLE_USAGE ( .BOTH. , #172 ) ;
#170 = CARTESIAN_POINT ( 'NONE',  ( 0.0000000000000000000, 0.0000000000000000000, 0.0000000000000000000 ) ) ;
#171 = CIRCLE ( 'NONE', #92, 0.1899999999999999700 ) ;
#172 = SURFACE_SIDE_STYLE ('',( #253 ) ) ;
#173 = PRESENTATION_STYLE_ASSIGNMENT (( #168 ) ) ;
#174 = FILL_AREA_STYLE ('',( #262 ) ) ;
#175 = DIMENSIONAL_EXPONENTS ( 1.000000000000000000, 0.0000000000000000000, 0.0000000000000000000, 0.0000000000000000000, 0.0000000000000000000, 0.0000000000000000000, 0.0000000000000000000 ) ;
#176 = PRESENTATION_LAYER_ASSIGNMENT (  '', '', ( #118 ) ) ;
#177 = UNCERTAINTY_MEASURE_WITH_UNIT (LENGTH_MEASURE( 1.000000000000000100E-005 ), #271, 'distance_accuracy_value', 'NONE');
#178 = FACE_BOUND ( 'NONE', #117, .T. ) ;
#179 = DIMENSIONAL_EXPONENTS ( 1.000000000000000000, 0.0000000000000000000, 0.0000000000000000000, 0.0000000000000000000, 0.0000000000000000000, 0.0000000000000000000, 0.0000000000000000000 ) ;
#180 = DIRECTION ( 'NONE',  ( 0.0000000000000000000, 0.0000000000000000000, 1.000000000000000000 ) ) ;
#181 = CARTESIAN_POINT ( 'NONE',  ( 2.694222958124177300E-017, 1.799999999999999800, 0.2200000000000000000 ) ) ;
#182 = DIRECTION ( 'NONE',  ( 0.0000000000000000000, 0.0000000000000000000, 1.000000000000000000 ) ) ;
#183 = FILL_AREA_STYLE_COLOUR ( '', #250 ) ;
#184 = SURFACE_STYLE_FILL_AREA ( #193 ) ;
#185 = CARTESIAN_POINT ( 'NONE',  ( 0.0000000000000000000, 1.799999999999999800, 0.0000000000000000000 ) ) ;
#186 = LENGTH_MEASURE_WITH_UNIT ( LENGTH_MEASURE( 0.02539999999999999900 ), #43 );
#187 = CIRCLE ( 'NONE', #82, 0.2200000000000000000 ) ;
#188 = FILL_AREA_STYLE ('',( #183 ) ) ;
#189 = FILL_AREA_STYLE ('',( #268 ) ) ;
#190 = ORIENTED_EDGE ( 'NONE', *, *, #142, .T. ) ;
#191 = ORIENTED_EDGE ( 'NONE', *, *, #293, .F. ) ;
#192 = DIRECTION ( 'NONE',  ( -0.0000000000000000000, -1.000000000000000000, -0.0000000000000000000 ) ) ;
#193 = FILL_AREA_STYLE ('',( #76 ) ) ;
#194 = UNCERTAINTY_MEASURE_WITH_UNIT (LENGTH_MEASURE( 1.000000000000000100E-005 ), #257, 'distance_accuracy_value', 'NONE');
#195 = CARTESIAN_POINT ( 'NONE',  ( 0.0000000000000000000, 1.799999999999999800, 0.0000000000000000000 ) ) ;
#196 = FACE_OUTER_BOUND ( 'NONE', #120, .T. ) ;
#197 = AXIS2_PLACEMENT_3D ( 'NONE', #23, #22, #21 ) ;
#198 = DIRECTION ( 'NONE',  ( 0.0000000000000000000, -0.0000000000000000000, 1.000000000000000000 ) ) ;
#199 = VERTEX_POINT ( 'NONE', #26 ) ;
#200 = FILL_AREA_STYLE_COLOUR ( '', #309 ) ;
#201 = COLOUR_RGB ( '',0.8313725490196077800, 0.6705882352941176000, 0.1294117647058823400 ) ;
#202 = ORIENTED_EDGE ( 'NONE', *, *, #306, .T. ) ;
#203 = MANIFOLD_SOLID_BREP ( 'Boss-Extrude1', #219 ) ;
#204 = LINE ( 'NONE', #254, #121 ) ;
#205 = ADVANCED_FACE ( 'NONE', ( #223 ), #323, .T. ) ;
#206 = ORIENTED_EDGE ( 'NONE', *, *, #298, .F. ) ;
#207 = EDGE_LOOP ( 'NONE', ( #116, #9, #275, #248 ) ) ;
#208 = LENGTH_MEASURE_WITH_UNIT ( LENGTH_MEASURE( 0.02539999999999999900 ), #316 );
#209 = PRODUCT_CONTEXT ( 'NONE', #28, 'mechanical' ) ;
#210 = DIRECTION ( 'NONE',  ( 0.0000000000000000000, 0.0000000000000000000, -1.000000000000000000 ) ) ;
#211 = CARTESIAN_POINT ( 'NONE',  ( 0.0000000000000000000, 1.799999999999999800, -0.1899999999999999700 ) ) ;
#212 = DIRECTION ( 'NONE',  ( -0.0000000000000000000, -1.000000000000000000, -0.0000000000000000000 ) ) ;
#213 = DIRECTION ( 'NONE',  ( -0.0000000000000000000, -1.000000000000000000, -0.0000000000000000000 ) ) ;
#214 = DIRECTION ( 'NONE',  ( 0.0000000000000000000, 1.000000000000000000, 0.0000000000000000000 ) ) ;
#215 = VERTEX_POINT ( 'NONE', #181 ) ;
#216 = CARTESIAN_POINT ( 'NONE',  ( 0.0000000000000000000, 0.0000000000000000000, 0.0000000000000000000 ) ) ;
#217 = CARTESIAN_POINT ( 'NONE',  ( 0.0000000000000000000, 1.799999999999999800, 0.0000000000000000000 ) ) ;
#218 = UNCERTAINTY_MEASURE_WITH_UNIT (LENGTH_MEASURE( 1.000000000000000100E-005 ), #236, 'distance_accuracy_value', 'NONE');
#219 = CLOSED_SHELL ( 'NONE', ( #224, #75, #225, #65, #205, #63 ) ) ;
#220 =( NAMED_UNIT ( * ) SI_UNIT ( $, .STERADIAN. ) SOLID_ANGLE_UNIT ( ) );
#221 = FILL_AREA_STYLE ('',( #200 ) ) ;
#222 =( LENGTH_UNIT ( ) NAMED_UNIT ( * ) SI_UNIT ( $, .METRE. ) );
#223 = FACE_OUTER_BOUND ( 'NONE', #207, .T. ) ;
#224 = ADVANCED_FACE ( 'NONE', ( #119 ), #234, .F. ) ;
#225 = ADVANCED_FACE ( 'NONE', ( #196, #178 ), #2, .T. ) ;
#226 = SURFACE_STYLE_FILL_AREA ( #8 ) ;
#227 = APPLICATION_PROTOCOL_DEFINITION ( 'draft international standard', 'automotive_design', 1998, #34 ) ;
#228 = DIRECTION ( 'NONE',  ( -0.0000000000000000000, -1.000000000000000000, -0.0000000000000000000 ) ) ;
#229 =( NAMED_UNIT ( * ) SI_UNIT ( $, .STERADIAN. ) SOLID_ANGLE_UNIT ( ) );
#230 = PRESENTATION_STYLE_ASSIGNMENT (( #241 ) ) ;
#231 = FACE_OUTER_BOUND ( 'NONE', #282, .T. ) ;
#232 =( NAMED_UNIT ( * ) PLANE_ANGLE_UNIT ( ) SI_UNIT ( $, .RADIAN. ) );
#233 = FACE_BOUND ( 'NONE', #59, .T. ) ;
#234 = CYLINDRICAL_SURFACE ( 'NONE', #103, 0.1899999999999999700 ) ;
#235 = LENGTH_MEASURE_WITH_UNIT ( LENGTH_MEASURE( 0.02539999999999999900 ), #149 );
#236 =( CONVERSION_BASED_UNIT ( 'INCH', #105 ) LENGTH_UNIT ( ) NAMED_UNIT ( #322 ) );
#237 =( LENGTH_UNIT ( ) NAMED_UNIT ( * ) SI_UNIT ( $, .METRE. ) );
#238 = DIRECTION ( 'NONE',  ( -0.0000000000000000000, -1.000000000000000000, -0.0000000000000000000 ) ) ;
#239 = CARTESIAN_POINT ( 'NONE',  ( 0.0000000000000000000, 1.799999999999999800, 0.0000000000000000000 ) ) ;
#240 = UNCERTAINTY_MEASURE_WITH_UNIT (LENGTH_MEASURE( 1.000000000000000100E-005 ), #317, 'distance_accuracy_value', 'NONE');
#241 = SURFACE_STYLE_USAGE ( .BOTH. , #55 ) ;
#242 =( NAMED_UNIT ( * ) PLANE_ANGLE_UNIT ( ) SI_UNIT ( $, .RADIAN. ) );
#243 = PRESENTATION_STYLE_ASSIGNMENT (( #134 ) ) ;
#244 =( GEOMETRIC_REPRESENTATION_CONTEXT ( 3 ) GLOBAL_UNCERTAINTY_ASSIGNED_CONTEXT ( ( #287 ) ) GLOBAL_UNIT_ASSIGNED_CONTEXT ( ( #143, #139, #109 ) ) REPRESENTATION_CONTEXT ( 'NONE', 'WORKASPACE' ) );
#245 = FACE_OUTER_BOUND ( 'NONE', #124, .T. ) ;
#246 = LENGTH_MEASURE_WITH_UNIT ( LENGTH_MEASURE( 0.02539999999999999900 ), #113 );
#247 = VECTOR ( 'NONE', #318, 39.37007874015748100 ) ;
#248 = ORIENTED_EDGE ( 'NONE', *, *, #146, .T. ) ;
#249 = ORIENTED_EDGE ( 'NONE', *, *, #297, .F. ) ;
#250 = COLOUR_RGB ( '',0.8313725490196077800, 0.6705882352941176000, 0.1294117647058823400 ) ;
#251 = FILL_AREA_STYLE ('',( #17 ) ) ;
#252 = VERTEX_POINT ( 'NONE', #211 ) ;
#253 = SURFACE_STYLE_FILL_AREA ( #174 ) ;
#254 = CARTESIAN_POINT ( 'NONE',  ( 2.694222958124177300E-017, 1.799999999999999800, 0.2200000000000000000 ) ) ;
#255 =( NAMED_UNIT ( * ) PLANE_ANGLE_UNIT ( ) SI_UNIT ( $, .RADIAN. ) );
#256 = CIRCLE ( 'NONE', #83, 0.2200000000000000000 ) ;
#257 =( CONVERSION_BASED_UNIT ( 'INCH', #208 ) LENGTH_UNIT ( ) NAMED_UNIT ( #162 ) );
#258 = SURFACE_STYLE_USAGE ( .BOTH. , #260 ) ;
#259 = CARTESIAN_POINT ( 'NONE',  ( 0.0000000000000000000, 0.0000000000000000000, 0.0000000000000000000 ) ) ;
#260 = SURFACE_SIDE_STYLE ('',( #30 ) ) ;
#261 = MECHANICAL_DESIGN_GEOMETRIC_PRESENTATION_REPRESENTATION (  '', ( #274 ), #244 ) ;
#262 = FILL_AREA_STYLE_COLOUR ( '', #201 ) ;
#263 = CARTESIAN_POINT ( 'NONE',  ( 0.0000000000000000000, 0.0000000000000000000, 0.0000000000000000000 ) ) ;
#264 = PLANE ( 'NONE',  #272 ) ;
#265 = ORIENTED_EDGE ( 'NONE', *, *, #308, .F. ) ;
#266 = DIRECTION ( 'NONE',  ( -0.0000000000000000000, -1.000000000000000000, -0.0000000000000000000 ) ) ;
#267 = PRESENTATION_LAYER_ASSIGNMENT (  '', '', ( #274 ) ) ;
#268 = FILL_AREA_STYLE_COLOUR ( '', #310 ) ;
#269 = DIRECTION ( 'NONE',  ( 0.0000000000000000000, 0.0000000000000000000, 1.000000000000000000 ) ) ;
#270 = VECTOR ( 'NONE', #228, 39.37007874015748100 ) ;
#271 =( CONVERSION_BASED_UNIT ( 'INCH', #16 ) LENGTH_UNIT ( ) NAMED_UNIT ( #122 ) );
#272 = AXIS2_PLACEMENT_3D ( 'NONE', #216, #214, #198 ) ;
#273 = ORIENTED_EDGE ( 'NONE', *, *, #142, .F. ) ;
#274 = STYLED_ITEM ( 'NONE', ( #329 ), #75 ) ;
#275 = ORIENTED_EDGE ( 'NONE', *, *, #308, .T. ) ;
#276 = EDGE_CURVE ( 'NONE', #160, #252, #171, .T. ) ;
#277 =( GEOMETRIC_REPRESENTATION_CONTEXT ( 3 ) GLOBAL_UNCERTAINTY_ASSIGNED_CONTEXT ( ( #218 ) ) GLOBAL_UNIT_ASSIGNED_CONTEXT ( ( #236, #232, #220 ) ) REPRESENTATION_CONTEXT ( 'NONE', 'WORKASPACE' ) );
#278 = MECHANICAL_DESIGN_GEOMETRIC_PRESENTATION_REPRESENTATION (  '', ( #280 ), #277 ) ;
#279 = AXIS2_PLACEMENT_3D ( 'NONE', #138, #238, #299 ) ;
#280 = STYLED_ITEM ( 'NONE', ( #108 ), #65 ) ;
#281 = PRESENTATION_LAYER_ASSIGNMENT (  '', '', ( #280 ) ) ;
#282 = EDGE_LOOP ( 'NONE', ( #61, #156 ) ) ;
#283 = DIRECTION ( 'NONE',  ( 0.0000000000000000000, 1.000000000000000000, 0.0000000000000000000 ) ) ;
#284 =( GEOMETRIC_REPRESENTATION_CONTEXT ( 3 ) GLOBAL_UNCERTAINTY_ASSIGNED_CONTEXT ( ( #240 ) ) GLOBAL_UNIT_ASSIGNED_CONTEXT ( ( #317, #54, #321 ) ) REPRESENTATION_CONTEXT ( 'NONE', 'WORKASPACE' ) );
#285 = DIRECTION ( 'NONE',  ( 0.0000000000000000000, 1.000000000000000000, 0.0000000000000000000 ) ) ;
#286 =( LENGTH_UNIT ( ) NAMED_UNIT ( * ) SI_UNIT ( $, .METRE. ) );
#287 = UNCERTAINTY_MEASURE_WITH_UNIT (LENGTH_MEASURE( 1.000000000000000100E-005 ), #143, 'distance_accuracy_value', 'NONE');
#288 = MECHANICAL_DESIGN_GEOMETRIC_PRESENTATION_REPRESENTATION (  '', ( #294 ), #284 ) ;
#289 =( NAMED_UNIT ( * ) PLANE_ANGLE_UNIT ( ) SI_UNIT ( $, .RADIAN. ) );
#290 = DIRECTION ( 'NONE',  ( 0.0000000000000000000, 0.0000000000000000000, 1.000000000000000000 ) ) ;
#291 = PRESENTATION_LAYER_ASSIGNMENT (  '', '', ( #294 ) ) ;
#292 = UNCERTAINTY_MEASURE_WITH_UNIT (LENGTH_MEASURE( 1.000000000000000100E-005 ), #301, 'distance_accuracy_value', 'NONE');
#293 = EDGE_CURVE ( 'NONE', #38, #327, #153, .T. ) ;
#294 = STYLED_ITEM ( 'NONE', ( #112 ), #63 ) ;
#295 = DIRECTION ( 'NONE',  ( 0.0000000000000000000, 0.0000000000000000000, 1.000000000000000000 ) ) ;
#296 = CIRCLE ( 'NONE', #159, 0.1899999999999999700 ) ;
#297 = EDGE_CURVE ( 'NONE', #252, #38, #3, .T. ) ;
#298 = EDGE_CURVE ( 'NONE', #252, #160, #60, .T. ) ;
#299 = DIRECTION ( 'NONE',  ( 0.0000000000000000000, 0.0000000000000000000, -1.000000000000000000 ) ) ;
#300 = EDGE_CURVE ( 'NONE', #160, #327, #56, .T. ) ;
#301 =( CONVERSION_BASED_UNIT ( 'INCH', #246 ) LENGTH_UNIT ( ) NAMED_UNIT ( #175 ) );
#302 = EDGE_CURVE ( 'NONE', #215, #199, #132, .T. ) ;
#303 = EDGE_CURVE ( 'NONE', #215, #1, #204, .T. ) ;
#304 = DIRECTION ( 'NONE',  ( 0.0000000000000000000, 1.000000000000000000, 0.0000000000000000000 ) ) ;
#305 = COLOUR_RGB ( '',0.7921568627450980000, 0.8196078431372548800, 0.9333333333333333500 ) ;
#306 = EDGE_CURVE ( 'NONE', #1, #324, #256, .T. ) ;
#307 = UNCERTAINTY_MEASURE_WITH_UNIT (LENGTH_MEASURE( 1.000000000000000100E-005 ), #102, 'distance_accuracy_value', 'NONE');
#308 = EDGE_CURVE ( 'NONE', #199, #324, #40, .T. ) ;
#309 = COLOUR_RGB ( '',0.7921568627450980000, 0.8196078431372548800, 0.9333333333333333500 ) ;
#310 = COLOUR_RGB ( '',0.8313725490196077800, 0.6705882352941176000, 0.1294117647058823400 ) ;
#311 = CYLINDRICAL_SURFACE ( 'NONE', #279, 0.1899999999999999700 ) ;
#312 = SURFACE_STYLE_FILL_AREA ( #251 ) ;
#313 =( NAMED_UNIT ( * ) PLANE_ANGLE_UNIT ( ) SI_UNIT ( $, .RADIAN. ) );
#314 = CARTESIAN_POINT ( 'NONE',  ( 0.0000000000000000000, 1.799999999999999800, -0.2200000000000000000 ) ) ;
#315 =( NAMED_UNIT ( * ) SI_UNIT ( $, .STERADIAN. ) SOLID_ANGLE_UNIT ( ) );
#316 =( LENGTH_UNIT ( ) NAMED_UNIT ( * ) SI_UNIT ( $, .METRE. ) );
#317 =( CONVERSION_BASED_UNIT ( 'INCH', #186 ) LENGTH_UNIT ( ) NAMED_UNIT ( #49 ) );
#318 = DIRECTION ( 'NONE',  ( -0.0000000000000000000, -1.000000000000000000, -0.0000000000000000000 ) ) ;
#319 = ORIENTED_EDGE ( 'NONE', *, *, #300, .F. ) ;
#320 = ORIENTED_EDGE ( 'NONE', *, *, #300, .T. ) ;
#321 =( NAMED_UNIT ( * ) SI_UNIT ( $, .STERADIAN. ) SOLID_ANGLE_UNIT ( ) );
#322 = DIMENSIONAL_EXPONENTS ( 1.000000000000000000, 0.0000000000000000000, 0.0000000000000000000, 0.0000000000000000000, 0.0000000000000000000, 0.0000000000000000000, 0.0000000000000000000 ) ;
#323 = CYLINDRICAL_SURFACE ( 'NONE', #68, 0.2200000000000000000 ) ;
#324 = VERTEX_POINT ( 'NONE', #67 ) ;
#325 =( NAMED_UNIT ( * ) SI_UNIT ( $, .STERADIAN. ) SOLID_ANGLE_UNIT ( ) );
#326 = ORIENTED_EDGE ( 'NONE', *, *, #276, .T. ) ;
#327 = VERTEX_POINT ( 'NONE', #73 ) ;
#328 = PRESENTATION_STYLE_ASSIGNMENT (( #4 ) ) ;
#329 = PRESENTATION_STYLE_ASSIGNMENT (( #169 ) ) ;
#330 = VECTOR ( 'NONE', #212, 39.37007874015748100 ) ;
#331 = EDGE_CURVE ( 'NONE', #199, #215, #187, .T. ) ;
ENDSEC;
END-ISO-10303-21;
