ISO-10303-21;
HEADER;
FILE_DESCRIPTION (( 'STEP AP214' ),
    '1' );
FILE_NAME ('am-2243 0.82 inch x 0.375'''' Spacer.STEP',
    '2014-08-21T20:17:49',
    ( '' ),
    ( '' ),
    'SwSTEP 2.0',
    'SolidWorks 2014',
    '' );
FILE_SCHEMA (( 'AUTOMOTIVE_DESIGN' ));
ENDSEC;

DATA;
#1 =( LENGTH_UNIT ( ) NAMED_UNIT ( * ) SI_UNIT ( $, .METRE. ) );
#2 = DIRECTION ( 'NONE',  ( 0.0000000000000000000, 0.0000000000000000000, 1.000000000000000000 ) ) ;
#3 = CARTESIAN_POINT ( 'NONE',  ( 2.326828918379970900E-017, 0.8199999999999999500, 0.1899999999999999700 ) ) ;
#4 = DIRECTION ( 'NONE',  ( 0.0000000000000000000, 1.000000000000000000, 0.0000000000000000000 ) ) ;
#5 = FILL_AREA_STYLE ('',( #85 ) ) ;
#6 =( NAMED_UNIT ( * ) PLANE_ANGLE_UNIT ( ) SI_UNIT ( $, .RADIAN. ) );
#7 = CARTESIAN_POINT ( 'NONE',  ( 2.326828918379970900E-017, 0.0000000000000000000, 0.1899999999999999700 ) ) ;
#8 = CIRCLE ( 'NONE', #188, 0.1899999999999999700 ) ;
#9 = FACE_OUTER_BOUND ( 'NONE', #56, .T. ) ;
#10 = EDGE_CURVE ( 'NONE', #58, #11, #155, .T. ) ;
#11 = VERTEX_POINT ( 'NONE', #219 ) ;
#12 = ORIENTED_EDGE ( 'NONE', *, *, #199, .F. ) ;
#13 = DIRECTION ( 'NONE',  ( 0.0000000000000000000, 1.000000000000000000, 0.0000000000000000000 ) ) ;
#14 = FACE_BOUND ( 'NONE', #205, .T. ) ;
#15 = CARTESIAN_POINT ( 'NONE',  ( 0.0000000000000000000, 0.0000000000000000000, 0.0000000000000000000 ) ) ;
#16 =( CONVERSION_BASED_UNIT ( 'INCH', #82 ) LENGTH_UNIT ( ) NAMED_UNIT ( #89 ) );
#17 =( CONVERSION_BASED_UNIT ( 'INCH', #134 ) LENGTH_UNIT ( ) NAMED_UNIT ( #135 ) );
#18 = DIRECTION ( 'NONE',  ( 0.0000000000000000000, 0.0000000000000000000, 1.000000000000000000 ) ) ;
#19 = DIRECTION ( 'NONE',  ( 0.0000000000000000000, 1.000000000000000000, 0.0000000000000000000 ) ) ;
#20 = PRESENTATION_STYLE_ASSIGNMENT (( #41 ) ) ;
#21 = EDGE_LOOP ( 'NONE', ( #193, #12, #151, #203 ) ) ;
#22 = ORIENTED_EDGE ( 'NONE', *, *, #90, .F. ) ;
#23 = CARTESIAN_POINT ( 'NONE',  ( 0.0000000000000000000, 0.8199999999999999500, 0.0000000000000000000 ) ) ;
#24 = SURFACE_STYLE_USAGE ( .BOTH. , #127 ) ;
#25 = ORIENTED_EDGE ( 'NONE', *, *, #10, .F. ) ;
#26 = CARTESIAN_POINT ( 'NONE',  ( 2.694222958124176600E-017, 0.8199999999999999500, 0.2199999999999999700 ) ) ;
#27 = SURFACE_SIDE_STYLE ('',( #210 ) ) ;
#28 = MANIFOLD_SOLID_BREP ( 'Boss-Extrude1', #146 ) ;
#29 = SURFACE_STYLE_FILL_AREA ( #5 ) ;
#30 = CIRCLE ( 'NONE', #180, 0.1899999999999999700 ) ;
#31 = PRESENTATION_STYLE_ASSIGNMENT (( #24 ) ) ;
#32 = EDGE_LOOP ( 'NONE', ( #33, #71 ) ) ;
#33 = ORIENTED_EDGE ( 'NONE', *, *, #199, .T. ) ;
#34 =( NAMED_UNIT ( * ) PLANE_ANGLE_UNIT ( ) SI_UNIT ( $, .RADIAN. ) );
#35 = CIRCLE ( 'NONE', #169, 0.2199999999999999700 ) ;
#36 = FACE_OUTER_BOUND ( 'NONE', #21, .T. ) ;
#37 = ORIENTED_EDGE ( 'NONE', *, *, #200, .F. ) ;
#38 = CARTESIAN_POINT ( 'NONE',  ( 2.694222958124176600E-017, 0.0000000000000000000, 0.2199999999999999700 ) ) ;
#39 = VERTEX_POINT ( 'NONE', #38 ) ;
#40 =( LENGTH_UNIT ( ) NAMED_UNIT ( * ) SI_UNIT ( $, .METRE. ) );
#41 = SURFACE_STYLE_USAGE ( .BOTH. , #27 ) ;
#42 = CARTESIAN_POINT ( 'NONE',  ( 0.0000000000000000000, 0.8199999999999999500, 0.0000000000000000000 ) ) ;
#43 = ADVANCED_FACE ( 'NONE', ( #75 ), #148, .F. ) ;
#44 = EDGE_CURVE ( 'NONE', #58, #163, #197, .T. ) ;
#45 = ADVANCED_FACE ( 'NONE', ( #9 ), #187, .T. ) ;
#46 = DIRECTION ( 'NONE',  ( 0.0000000000000000000, 0.0000000000000000000, 1.000000000000000000 ) ) ;
#47 = EDGE_CURVE ( 'NONE', #11, #110, #8, .T. ) ;
#48 = DIRECTION ( 'NONE',  ( 0.0000000000000000000, 1.000000000000000000, 0.0000000000000000000 ) ) ;
#49 = ADVANCED_FACE ( 'NONE', ( #104, #14 ), #157, .F. ) ;
#50 = DIRECTION ( 'NONE',  ( 0.0000000000000000000, 0.0000000000000000000, 1.000000000000000000 ) ) ;
#51 = DIRECTION ( 'NONE',  ( 0.0000000000000000000, 1.000000000000000000, 0.0000000000000000000 ) ) ;
#52 = CARTESIAN_POINT ( 'NONE',  ( 0.0000000000000000000, 0.0000000000000000000, 0.0000000000000000000 ) ) ;
#53 = FILL_AREA_STYLE_COLOUR ( '', #61 ) ;
#54 = FACE_OUTER_BOUND ( 'NONE', #32, .T. ) ;
#55 = CARTESIAN_POINT ( 'NONE',  ( 2.694222958124176600E-017, 0.8199999999999999500, 0.2199999999999999700 ) ) ;
#56 = EDGE_LOOP ( 'NONE', ( #63, #117, #156, #212 ) ) ;
#57 = EDGE_LOOP ( 'NONE', ( #76, #125 ) ) ;
#58 = VERTEX_POINT ( 'NONE', #144 ) ;
#59 = UNCERTAINTY_MEASURE_WITH_UNIT (LENGTH_MEASURE( 1.000000000000000100E-005 ), #133, 'distance_accuracy_value', 'NONE');
#60 = DIRECTION ( 'NONE',  ( 1.000000000000000000, 0.0000000000000000000, 0.0000000000000000000 ) ) ;
#61 = COLOUR_RGB ( '',0.8313725490196077800, 0.6705882352941176000, 0.1294117647058823400 ) ;
#62 = ORIENTED_EDGE ( 'NONE', *, *, #44, .T. ) ;
#63 = ORIENTED_EDGE ( 'NONE', *, *, #101, .F. ) ;
#64 = CARTESIAN_POINT ( 'NONE',  ( 0.0000000000000000000, 0.0000000000000000000, 0.0000000000000000000 ) ) ;
#65 = COLOUR_RGB ( '',0.8313725490196077800, 0.6705882352941176000, 0.1294117647058823400 ) ;
#66 = CYLINDRICAL_SURFACE ( 'NONE', #175, 0.1899999999999999700 ) ;
#67 = CARTESIAN_POINT ( 'NONE',  ( 0.0000000000000000000, 0.0000000000000000000, 0.0000000000000000000 ) ) ;
#68 = PLANE ( 'NONE',  #178 ) ;
#69 = ORIENTED_EDGE ( 'NONE', *, *, #47, .F. ) ;
#70 =( NAMED_UNIT ( * ) SI_UNIT ( $, .STERADIAN. ) SOLID_ANGLE_UNIT ( ) );
#71 = ORIENTED_EDGE ( 'NONE', *, *, #101, .T. ) ;
#72 = DIRECTION ( 'NONE',  ( -0.0000000000000000000, -1.000000000000000000, -0.0000000000000000000 ) ) ;
#73 = ADVANCED_FACE ( 'NONE', ( #36 ), #77, .T. ) ;
#74 = VECTOR ( 'NONE', #72, 39.37007874015748100 ) ;
#75 = FACE_OUTER_BOUND ( 'NONE', #147, .T. ) ;
#76 = ORIENTED_EDGE ( 'NONE', *, *, #204, .F. ) ;
#77 = CYLINDRICAL_SURFACE ( 'NONE', #182, 0.2199999999999999700 ) ;
#78 = APPLICATION_CONTEXT ( 'automotive_design' ) ;
#79 = ORIENTED_EDGE ( 'NONE', *, *, #207, .F. ) ;
#80 = PRODUCT_RELATED_PRODUCT_CATEGORY ( 'part', '', ( #115 ) ) ;
#81 = ORIENTED_EDGE ( 'NONE', *, *, #207, .T. ) ;
#82 = LENGTH_MEASURE_WITH_UNIT ( LENGTH_MEASURE( 0.02539999999999999900 ), #1 );
#83 = PRODUCT_DEFINITION_FORMATION_WITH_SPECIFIED_SOURCE ( 'ANY', '', #115, .NOT_KNOWN. ) ;
#84 = DIRECTION ( 'NONE',  ( 0.0000000000000000000, 0.0000000000000000000, -1.000000000000000000 ) ) ;
#85 = FILL_AREA_STYLE_COLOUR ( '', #65 ) ;
#86 = PRODUCT_DEFINITION ( 'UNKNOWN', '', #83, #92 ) ;
#87 = AXIS2_PLACEMENT_3D ( 'NONE', #67, #160, #60 ) ;
#88 = CARTESIAN_POINT ( 'NONE',  ( 2.326828918379970900E-017, 0.8199999999999999500, 0.1899999999999999700 ) ) ;
#89 = DIMENSIONAL_EXPONENTS ( 1.000000000000000000, 0.0000000000000000000, 0.0000000000000000000, 0.0000000000000000000, 0.0000000000000000000, 0.0000000000000000000, 0.0000000000000000000 ) ;
#90 = EDGE_CURVE ( 'NONE', #163, #110, #132, .T. ) ;
#91 = APPLICATION_PROTOCOL_DEFINITION ( 'draft international standard', 'automotive_design', 1998, #112 ) ;
#92 = PRODUCT_DEFINITION_CONTEXT ( 'detailed design', #78, 'design' ) ;
#93 = DIRECTION ( 'NONE',  ( -0.0000000000000000000, -1.000000000000000000, -0.0000000000000000000 ) ) ;
#94 = EDGE_CURVE ( 'NONE', #39, #119, #220, .T. ) ;
#95 = FILL_AREA_STYLE ('',( #53 ) ) ;
#96 =( GEOMETRIC_REPRESENTATION_CONTEXT ( 3 ) GLOBAL_UNCERTAINTY_ASSIGNED_CONTEXT ( ( #59 ) ) GLOBAL_UNIT_ASSIGNED_CONTEXT ( ( #133, #34, #149 ) ) REPRESENTATION_CONTEXT ( 'NONE', 'WORKASPACE' ) );
#97 = MECHANICAL_DESIGN_GEOMETRIC_PRESENTATION_REPRESENTATION (  '', ( #99 ), #96 ) ;
#98 = PRESENTATION_LAYER_ASSIGNMENT (  '', '', ( #99 ) ) ;
#99 = STYLED_ITEM ( 'NONE', ( #31 ), #173 ) ;
#100 = EDGE_CURVE ( 'NONE', #102, #39, #122, .T. ) ;
#101 = EDGE_CURVE ( 'NONE', #102, #123, #145, .T. ) ;
#102 = VERTEX_POINT ( 'NONE', #26 ) ;
#103 = DIRECTION ( 'NONE',  ( 0.0000000000000000000, 0.0000000000000000000, 1.000000000000000000 ) ) ;
#104 = FACE_OUTER_BOUND ( 'NONE', #57, .T. ) ;
#105 = CARTESIAN_POINT ( 'NONE',  ( 0.0000000000000000000, 0.0000000000000000000, -0.2199999999999999700 ) ) ;
#106 = CARTESIAN_POINT ( 'NONE',  ( 0.0000000000000000000, 0.8199999999999999500, -0.2199999999999999700 ) ) ;
#107 = DIRECTION ( 'NONE',  ( 0.0000000000000000000, 0.0000000000000000000, -1.000000000000000000 ) ) ;
#108 = ADVANCED_FACE ( 'NONE', ( #54, #162 ), #68, .T. ) ;
#109 = CARTESIAN_POINT ( 'NONE',  ( 0.0000000000000000000, 0.8199999999999999500, -0.1899999999999999700 ) ) ;
#110 = VERTEX_POINT ( 'NONE', #7 ) ;
#111 = EDGE_LOOP ( 'NONE', ( #62, #221, #69, #25 ) ) ;
#112 = APPLICATION_CONTEXT ( 'automotive_design' ) ;
#113 = CARTESIAN_POINT ( 'NONE',  ( 0.0000000000000000000, 0.8199999999999999500, 0.0000000000000000000 ) ) ;
#114 = DIRECTION ( 'NONE',  ( -0.0000000000000000000, -1.000000000000000000, -0.0000000000000000000 ) ) ;
#115 = PRODUCT ( 'am-2243 0.82 inch x 0.375'''''''' Spacer', 'am-2243 0.82 inch x 0.375'''''''' Spacer', '', ( #181 ) ) ;
#116 = VECTOR ( 'NONE', #158, 39.37007874015748100 ) ;
#117 = ORIENTED_EDGE ( 'NONE', *, *, #100, .T. ) ;
#118 = VECTOR ( 'NONE', #215, 39.37007874015748100 ) ;
#119 = VERTEX_POINT ( 'NONE', #105 ) ;
#120 = DIRECTION ( 'NONE',  ( 0.0000000000000000000, 1.000000000000000000, 0.0000000000000000000 ) ) ;
#121 = CARTESIAN_POINT ( 'NONE',  ( 0.0000000000000000000, 0.8199999999999999500, 0.0000000000000000000 ) ) ;
#122 = LINE ( 'NONE', #55, #74 ) ;
#123 = VERTEX_POINT ( 'NONE', #106 ) ;
#124 = DIRECTION ( 'NONE',  ( -0.0000000000000000000, -1.000000000000000000, -0.0000000000000000000 ) ) ;
#125 = ORIENTED_EDGE ( 'NONE', *, *, #94, .F. ) ;
#126 = DIRECTION ( 'NONE',  ( 0.0000000000000000000, -0.0000000000000000000, 1.000000000000000000 ) ) ;
#127 = SURFACE_SIDE_STYLE ('',( #29 ) ) ;
#128 = DIRECTION ( 'NONE',  ( 0.0000000000000000000, 1.000000000000000000, 0.0000000000000000000 ) ) ;
#129 = ADVANCED_FACE ( 'NONE', ( #159 ), #66, .F. ) ;
#130 =( GEOMETRIC_REPRESENTATION_CONTEXT ( 3 ) GLOBAL_UNCERTAINTY_ASSIGNED_CONTEXT ( ( #211 ) ) GLOBAL_UNIT_ASSIGNED_CONTEXT ( ( #16, #171, #70 ) ) REPRESENTATION_CONTEXT ( 'NONE', 'WORKASPACE' ) );
#131 = DIRECTION ( 'NONE',  ( 0.0000000000000000000, 0.0000000000000000000, 1.000000000000000000 ) ) ;
#132 = LINE ( 'NONE', #88, #164 ) ;
#133 =( CONVERSION_BASED_UNIT ( 'INCH', #201 ) LENGTH_UNIT ( ) NAMED_UNIT ( #142 ) );
#134 = LENGTH_MEASURE_WITH_UNIT ( LENGTH_MEASURE( 0.02539999999999999900 ), #40 );
#135 = DIMENSIONAL_EXPONENTS ( 1.000000000000000000, 0.0000000000000000000, 0.0000000000000000000, 0.0000000000000000000, 0.0000000000000000000, 0.0000000000000000000, 0.0000000000000000000 ) ;
#136 = PRODUCT_DEFINITION_SHAPE ( 'NONE', 'NONE',  #86 ) ;
#137 = DIRECTION ( 'NONE',  ( 0.0000000000000000000, -0.0000000000000000000, 1.000000000000000000 ) ) ;
#138 = DIRECTION ( 'NONE',  ( 0.0000000000000000000, 0.0000000000000000000, 1.000000000000000000 ) ) ;
#139 = DIRECTION ( 'NONE',  ( 0.0000000000000000000, 1.000000000000000000, 0.0000000000000000000 ) ) ;
#140 = CARTESIAN_POINT ( 'NONE',  ( 0.0000000000000000000, 0.0000000000000000000, 0.0000000000000000000 ) ) ;
#141 = CARTESIAN_POINT ( 'NONE',  ( 0.0000000000000000000, 0.8199999999999999500, 0.0000000000000000000 ) ) ;
#142 = DIMENSIONAL_EXPONENTS ( 1.000000000000000000, 0.0000000000000000000, 0.0000000000000000000, 0.0000000000000000000, 0.0000000000000000000, 0.0000000000000000000, 0.0000000000000000000 ) ;
#143 =( LENGTH_UNIT ( ) NAMED_UNIT ( * ) SI_UNIT ( $, .METRE. ) );
#144 = CARTESIAN_POINT ( 'NONE',  ( 0.0000000000000000000, 0.8199999999999999500, -0.1899999999999999700 ) ) ;
#145 = CIRCLE ( 'NONE', #185, 0.2199999999999999700 ) ;
#146 = CLOSED_SHELL ( 'NONE', ( #129, #45, #108, #49, #73, #43 ) ) ;
#147 = EDGE_LOOP ( 'NONE', ( #22, #192, #202, #79 ) ) ;
#148 = CYLINDRICAL_SURFACE ( 'NONE', #189, 0.1899999999999999700 ) ;
#149 =( NAMED_UNIT ( * ) SI_UNIT ( $, .STERADIAN. ) SOLID_ANGLE_UNIT ( ) );
#150 = EDGE_LOOP ( 'NONE', ( #217, #37 ) ) ;
#151 = ORIENTED_EDGE ( 'NONE', *, *, #194, .T. ) ;
#152 = DIRECTION ( 'NONE',  ( 0.0000000000000000000, 1.000000000000000000, 0.0000000000000000000 ) ) ;
#153 = CARTESIAN_POINT ( 'NONE',  ( 0.0000000000000000000, 0.8199999999999999500, 0.0000000000000000000 ) ) ;
#154 = CARTESIAN_POINT ( 'NONE',  ( 0.0000000000000000000, 0.0000000000000000000, 0.0000000000000000000 ) ) ;
#155 = LINE ( 'NONE', #109, #116 ) ;
#156 = ORIENTED_EDGE ( 'NONE', *, *, #94, .T. ) ;
#157 = PLANE ( 'NONE',  #184 ) ;
#158 = DIRECTION ( 'NONE',  ( -0.0000000000000000000, -1.000000000000000000, -0.0000000000000000000 ) ) ;
#159 = FACE_OUTER_BOUND ( 'NONE', #111, .T. ) ;
#160 = DIRECTION ( 'NONE',  ( 0.0000000000000000000, 0.0000000000000000000, 1.000000000000000000 ) ) ;
#161 = AXIS2_PLACEMENT_3D ( 'NONE', #15, #13, #2 ) ;
#162 = FACE_BOUND ( 'NONE', #150, .T. ) ;
#163 = VERTEX_POINT ( 'NONE', #3 ) ;
#164 = VECTOR ( 'NONE', #93, 39.37007874015748100 ) ;
#165 = CARTESIAN_POINT ( 'NONE',  ( 0.0000000000000000000, 0.8199999999999999500, -0.2199999999999999700 ) ) ;
#166 = CARTESIAN_POINT ( 'NONE',  ( 0.0000000000000000000, 0.8199999999999999500, 0.0000000000000000000 ) ) ;
#167 = DIRECTION ( 'NONE',  ( 0.0000000000000000000, 1.000000000000000000, 0.0000000000000000000 ) ) ;
#168 = CARTESIAN_POINT ( 'NONE',  ( 0.0000000000000000000, 0.8199999999999999500, 0.0000000000000000000 ) ) ;
#169 = AXIS2_PLACEMENT_3D ( 'NONE', #64, #48, #46 ) ;
#170 = DIRECTION ( 'NONE',  ( 0.0000000000000000000, 0.0000000000000000000, 1.000000000000000000 ) ) ;
#171 =( NAMED_UNIT ( * ) PLANE_ANGLE_UNIT ( ) SI_UNIT ( $, .RADIAN. ) );
#172 = DIRECTION ( 'NONE',  ( 0.0000000000000000000, 0.0000000000000000000, -1.000000000000000000 ) ) ;
#173 = ADVANCED_BREP_SHAPE_REPRESENTATION ( 'am-2243 0.82 inch x 0.375'''''''' Spacer', ( #28, #87 ), #130 ) ;
#174 = DIRECTION ( 'NONE',  ( -0.0000000000000000000, -1.000000000000000000, -0.0000000000000000000 ) ) ;
#175 = AXIS2_PLACEMENT_3D ( 'NONE', #166, #124, #84 ) ;
#176 = CARTESIAN_POINT ( 'NONE',  ( 0.0000000000000000000, 0.8199999999999999500, 0.0000000000000000000 ) ) ;
#177 = AXIS2_PLACEMENT_3D ( 'NONE', #153, #152, #138 ) ;
#178 = AXIS2_PLACEMENT_3D ( 'NONE', #42, #4, #137 ) ;
#179 = CIRCLE ( 'NONE', #161, 0.1899999999999999700 ) ;
#180 = AXIS2_PLACEMENT_3D ( 'NONE', #121, #120, #103 ) ;
#181 = PRODUCT_CONTEXT ( 'NONE', #112, 'mechanical' ) ;
#182 = AXIS2_PLACEMENT_3D ( 'NONE', #141, #114, #107 ) ;
#183 = AXIS2_PLACEMENT_3D ( 'NONE', #52, #51, #50 ) ;
#184 = AXIS2_PLACEMENT_3D ( 'NONE', #154, #128, #126 ) ;
#185 = AXIS2_PLACEMENT_3D ( 'NONE', #23, #19, #18 ) ;
#186 = AXIS2_PLACEMENT_3D ( 'NONE', #176, #174, #172 ) ;
#187 = CYLINDRICAL_SURFACE ( 'NONE', #186, 0.2199999999999999700 ) ;
#188 = AXIS2_PLACEMENT_3D ( 'NONE', #140, #139, #131 ) ;
#189 = AXIS2_PLACEMENT_3D ( 'NONE', #113, #196, #216 ) ;
#190 = AXIS2_PLACEMENT_3D ( 'NONE', #168, #167, #170 ) ;
#191 =( GEOMETRIC_REPRESENTATION_CONTEXT ( 3 ) GLOBAL_UNCERTAINTY_ASSIGNED_CONTEXT ( ( #213 ) ) GLOBAL_UNIT_ASSIGNED_CONTEXT ( ( #17, #6, #218 ) ) REPRESENTATION_CONTEXT ( 'NONE', 'WORKASPACE' ) );
#192 = ORIENTED_EDGE ( 'NONE', *, *, #200, .T. ) ;
#193 = ORIENTED_EDGE ( 'NONE', *, *, #100, .F. ) ;
#194 = EDGE_CURVE ( 'NONE', #123, #119, #214, .T. ) ;
#195 = MECHANICAL_DESIGN_GEOMETRIC_PRESENTATION_REPRESENTATION (  '', ( #223 ), #191 ) ;
#196 = DIRECTION ( 'NONE',  ( -0.0000000000000000000, -1.000000000000000000, -0.0000000000000000000 ) ) ;
#197 = CIRCLE ( 'NONE', #190, 0.1899999999999999700 ) ;
#198 = PRESENTATION_LAYER_ASSIGNMENT (  '', '', ( #223 ) ) ;
#199 = EDGE_CURVE ( 'NONE', #123, #102, #209, .T. ) ;
#200 = EDGE_CURVE ( 'NONE', #163, #58, #30, .T. ) ;
#201 = LENGTH_MEASURE_WITH_UNIT ( LENGTH_MEASURE( 0.02539999999999999900 ), #143 );
#202 = ORIENTED_EDGE ( 'NONE', *, *, #10, .T. ) ;
#203 = ORIENTED_EDGE ( 'NONE', *, *, #204, .T. ) ;
#204 = EDGE_CURVE ( 'NONE', #119, #39, #35, .T. ) ;
#205 = EDGE_LOOP ( 'NONE', ( #222, #81 ) ) ;
#206 = SHAPE_DEFINITION_REPRESENTATION ( #136, #173 ) ;
#207 = EDGE_CURVE ( 'NONE', #110, #11, #179, .T. ) ;
#208 = APPLICATION_PROTOCOL_DEFINITION ( 'draft international standard', 'automotive_design', 1998, #78 ) ;
#209 = CIRCLE ( 'NONE', #177, 0.2199999999999999700 ) ;
#210 = SURFACE_STYLE_FILL_AREA ( #95 ) ;
#211 = UNCERTAINTY_MEASURE_WITH_UNIT (LENGTH_MEASURE( 1.000000000000000100E-005 ), #16, 'distance_accuracy_value', 'NONE');
#212 = ORIENTED_EDGE ( 'NONE', *, *, #194, .F. ) ;
#213 = UNCERTAINTY_MEASURE_WITH_UNIT (LENGTH_MEASURE( 1.000000000000000100E-005 ), #17, 'distance_accuracy_value', 'NONE');
#214 = LINE ( 'NONE', #165, #118 ) ;
#215 = DIRECTION ( 'NONE',  ( -0.0000000000000000000, -1.000000000000000000, -0.0000000000000000000 ) ) ;
#216 = DIRECTION ( 'NONE',  ( 0.0000000000000000000, 0.0000000000000000000, -1.000000000000000000 ) ) ;
#217 = ORIENTED_EDGE ( 'NONE', *, *, #44, .F. ) ;
#218 =( NAMED_UNIT ( * ) SI_UNIT ( $, .STERADIAN. ) SOLID_ANGLE_UNIT ( ) );
#219 = CARTESIAN_POINT ( 'NONE',  ( 0.0000000000000000000, 0.0000000000000000000, -0.1899999999999999700 ) ) ;
#220 = CIRCLE ( 'NONE', #183, 0.2199999999999999700 ) ;
#221 = ORIENTED_EDGE ( 'NONE', *, *, #90, .T. ) ;
#222 = ORIENTED_EDGE ( 'NONE', *, *, #47, .T. ) ;
#223 = STYLED_ITEM ( 'NONE', ( #20 ), #28 ) ;
ENDSEC;
END-ISO-10303-21;
