ISO-10303-21;
HEADER;
FILE_DESCRIPTION (( 'STEP AP214' ),
    '1' );
FILE_NAME ('am-2262 1.867'''' aluminum spacer.STEP',
    '2014-08-21T20:17:30',
    ( '' ),
    ( '' ),
    'SwSTEP 2.0',
    'SolidWorks 2014',
    '' );
FILE_SCHEMA (( 'AUTOMOTIVE_DESIGN' ));
ENDSEC;

DATA;
#1 = SURFACE_SIDE_STYLE ('',( #254 ) ) ;
#2 = DIRECTION ( 'NONE',  ( 0.0000000000000000000, 0.0000000000000000000, 1.000000000000000000 ) ) ;
#3 = FILL_AREA_STYLE_COLOUR ( '', #114 ) ;
#4 = VECTOR ( 'NONE', #246, 39.37007874015748100 ) ;
#5 = CYLINDRICAL_SURFACE ( 'NONE', #139, 0.2600000000000000100 ) ;
#6 = CIRCLE ( 'NONE', #250, 0.1250000000000000000 ) ;
#7 = DIRECTION ( 'NONE',  ( 0.0000000000000000000, 0.0000000000000000000, 1.000000000000000000 ) ) ;
#8 = CARTESIAN_POINT ( 'NONE',  ( 0.0000000000000000000, 1.867000000000000000, -0.2500000000000011100 ) ) ;
#9 = ORIENTED_EDGE ( 'NONE', *, *, #297, .T. ) ;
#10 = LINE ( 'NONE', #227, #4 ) ;
#11 = ADVANCED_FACE ( 'NONE', ( #292 ), #128, .T. ) ;
#12 = EDGE_CURVE ( 'NONE', #223, #150, #191, .T. ) ;
#13 = VERTEX_POINT ( 'NONE', #313 ) ;
#14 = ORIENTED_EDGE ( 'NONE', *, *, #115, .F. ) ;
#15 = ORIENTED_EDGE ( 'NONE', *, *, #322, .T. ) ;
#16 = EDGE_LOOP ( 'NONE', ( #85, #294, #206, #230 ) ) ;
#17 = EDGE_CURVE ( 'NONE', #95, #301, #6, .T. ) ;
#18 = CIRCLE ( 'NONE', #87, 0.1250000000000000000 ) ;
#19 = ORIENTED_EDGE ( 'NONE', *, *, #265, .T. ) ;
#20 = VERTEX_POINT ( 'NONE', #249 ) ;
#21 = EDGE_LOOP ( 'NONE', ( #157, #218 ) ) ;
#22 = DIRECTION ( 'NONE',  ( 0.0000000000000000000, -1.000000000000000000, 0.0000000000000000000 ) ) ;
#23 = DIRECTION ( 'NONE',  ( 0.0000000000000000000, 1.000000000000000000, 0.0000000000000000000 ) ) ;
#24 =( LENGTH_UNIT ( ) NAMED_UNIT ( * ) SI_UNIT ( $, .METRE. ) );
#25 = DIRECTION ( 'NONE',  ( -0.0000000000000000000, -1.000000000000000000, -0.0000000000000000000 ) ) ;
#26 = DIRECTION ( 'NONE',  ( -0.0000000000000000000, -1.000000000000000000, -0.0000000000000000000 ) ) ;
#27 = ORIENTED_EDGE ( 'NONE', *, *, #266, .T. ) ;
#28 = DIRECTION ( 'NONE',  ( 0.0000000000000000000, 0.0000000000000000000, 1.000000000000000000 ) ) ;
#29 = CARTESIAN_POINT ( 'NONE',  ( 0.0000000000000000000, 1.857000000000000900, -0.2600000000000000100 ) ) ;
#30 = ORIENTED_EDGE ( 'NONE', *, *, #272, .T. ) ;
#31 = ADVANCED_FACE ( 'NONE', ( #140 ), #91, .F. ) ;
#32 = DIRECTION ( 'NONE',  ( 0.0000000000000000000, 1.000000000000000000, 0.0000000000000000000 ) ) ;
#33 = DIRECTION ( 'NONE',  ( 0.0000000000000000000, 0.7071067811865438000, 0.7071067811865511300 ) ) ;
#34 = CIRCLE ( 'NONE', #90, 0.2499999999999986400 ) ;
#35 = DIRECTION ( 'NONE',  ( -0.0000000000000000000, 1.000000000000000000, -0.0000000000000000000 ) ) ;
#36 = CARTESIAN_POINT ( 'NONE',  ( 0.0000000000000000000, 0.0000000000000000000, 0.0000000000000000000 ) ) ;
#37 = CARTESIAN_POINT ( 'NONE',  ( 0.0000000000000000000, 0.0000000000000000000, 0.0000000000000000000 ) ) ;
#38 = DIRECTION ( 'NONE',  ( 0.0000000000000000000, -1.000000000000000000, 0.0000000000000000000 ) ) ;
#39 = DIRECTION ( 'NONE',  ( 0.0000000000000000000, 1.000000000000000000, 0.0000000000000000000 ) ) ;
#40 =( NAMED_UNIT ( * ) PLANE_ANGLE_UNIT ( ) SI_UNIT ( $, .RADIAN. ) );
#41 = SURFACE_STYLE_FILL_AREA ( #185 ) ;
#42 = PRODUCT_CONTEXT ( 'NONE', #153, 'mechanical' ) ;
#43 = PRODUCT_RELATED_PRODUCT_CATEGORY ( 'part', '', ( #169 ) ) ;
#44 = FACE_OUTER_BOUND ( 'NONE', #270, .T. ) ;
#45 = FACE_BOUND ( 'NONE', #21, .T. ) ;
#46 = DIRECTION ( 'NONE',  ( -0.0000000000000000000, 1.000000000000000000, -0.0000000000000000000 ) ) ;
#47 = FACE_OUTER_BOUND ( 'NONE', #96, .T. ) ;
#48 = PRODUCT_DEFINITION_FORMATION_WITH_SPECIFIED_SOURCE ( 'ANY', '', #169, .NOT_KNOWN. ) ;
#49 = SURFACE_STYLE_USAGE ( .BOTH. , #219 ) ;
#50 = CIRCLE ( 'NONE', #82, 0.2500000000000011100 ) ;
#51 = DIRECTION ( 'NONE',  ( 0.0000000000000000000, 0.0000000000000000000, 1.000000000000000000 ) ) ;
#52 = PRODUCT_DEFINITION ( 'UNKNOWN', '', #48, #243 ) ;
#53 = DIRECTION ( 'NONE',  ( 0.0000000000000000000, 0.0000000000000000000, 1.000000000000000000 ) ) ;
#54 = AXIS2_PLACEMENT_3D ( 'NONE', #61, #28, #201 ) ;
#55 = FACE_OUTER_BOUND ( 'NONE', #151, .T. ) ;
#56 = ORIENTED_EDGE ( 'NONE', *, *, #268, .F. ) ;
#57 =( CONVERSION_BASED_UNIT ( 'INCH', #245 ) LENGTH_UNIT ( ) NAMED_UNIT ( #179 ) );
#58 = ORIENTED_EDGE ( 'NONE', *, *, #265, .F. ) ;
#59 = CARTESIAN_POINT ( 'NONE',  ( 3.184081677783117500E-017, 1.867000000000000000, 0.2600000000000000100 ) ) ;
#60 = LINE ( 'NONE', #257, #264 ) ;
#61 = CARTESIAN_POINT ( 'NONE',  ( 0.0000000000000000000, 0.0000000000000000000, 0.0000000000000000000 ) ) ;
#62 =( GEOMETRIC_REPRESENTATION_CONTEXT ( 3 ) GLOBAL_UNCERTAINTY_ASSIGNED_CONTEXT ( ( #231 ) ) GLOBAL_UNIT_ASSIGNED_CONTEXT ( ( #195, #40, #173 ) ) REPRESENTATION_CONTEXT ( 'NONE', 'WORKASPACE' ) );
#63 = DIRECTION ( 'NONE',  ( 0.0000000000000000000, 0.0000000000000000000, -1.000000000000000000 ) ) ;
#64 = MECHANICAL_DESIGN_GEOMETRIC_PRESENTATION_REPRESENTATION (  '', ( #67 ), #62 ) ;
#65 = VERTEX_POINT ( 'NONE', #321 ) ;
#66 = PRESENTATION_LAYER_ASSIGNMENT (  '', '', ( #67 ) ) ;
#67 = STYLED_ITEM ( 'NONE', ( #238 ), #299 ) ;
#68 = APPLICATION_PROTOCOL_DEFINITION ( 'draft international standard', 'automotive_design', 1998, #232 ) ;
#69 = VERTEX_POINT ( 'NONE', #237 ) ;
#70 = VERTEX_POINT ( 'NONE', #190 ) ;
#71 =( GEOMETRIC_REPRESENTATION_CONTEXT ( 3 ) GLOBAL_UNCERTAINTY_ASSIGNED_CONTEXT ( ( #167 ) ) GLOBAL_UNIT_ASSIGNED_CONTEXT ( ( #57, #244, #98 ) ) REPRESENTATION_CONTEXT ( 'NONE', 'WORKASPACE' ) );
#72 = ORIENTED_EDGE ( 'NONE', *, *, #17, .F. ) ;
#73 = AXIS2_PLACEMENT_3D ( 'NONE', #171, #22, #192 ) ;
#74 = ADVANCED_FACE ( 'NONE', ( #258 ), #124, .T. ) ;
#75 = VERTEX_POINT ( 'NONE', #302 ) ;
#76 = AXIS2_PLACEMENT_3D ( 'NONE', #155, #99, #2 ) ;
#77 = LINE ( 'NONE', #59, #135 ) ;
#78 = AXIS2_PLACEMENT_3D ( 'NONE', #174, #25, #197 ) ;
#79 = AXIS2_PLACEMENT_3D ( 'NONE', #278, #119, #307 ) ;
#80 = ORIENTED_EDGE ( 'NONE', *, *, #322, .F. ) ;
#81 = DIRECTION ( 'NONE',  ( -0.0000000000000000000, -1.000000000000000000, -0.0000000000000000000 ) ) ;
#82 = AXIS2_PLACEMENT_3D ( 'NONE', #193, #39, #226 ) ;
#83 = ORIENTED_EDGE ( 'NONE', *, *, #268, .T. ) ;
#84 = AXIS2_PLACEMENT_3D ( 'NONE', #281, #121, #309 ) ;
#85 = ORIENTED_EDGE ( 'NONE', *, *, #286, .F. ) ;
#86 = ORIENTED_EDGE ( 'NONE', *, *, #259, .T. ) ;
#87 = AXIS2_PLACEMENT_3D ( 'NONE', #269, #23, #194 ) ;
#88 = ORIENTED_EDGE ( 'NONE', *, *, #295, .T. ) ;
#89 = AXIS2_PLACEMENT_3D ( 'NONE', #146, #100, #107 ) ;
#90 = AXIS2_PLACEMENT_3D ( 'NONE', #37, #222, #53 ) ;
#91 = CYLINDRICAL_SURFACE ( 'NONE', #162, 0.1250000000000000000 ) ;
#92 =( CONVERSION_BASED_UNIT ( 'INCH', #311 ) LENGTH_UNIT ( ) NAMED_UNIT ( #296 ) );
#93 = DIRECTION ( 'NONE',  ( -0.0000000000000000000, -1.000000000000000000, -0.0000000000000000000 ) ) ;
#94 = DIRECTION ( 'NONE',  ( 8.659560562354978500E-017, 0.7071067811865438000, -0.7071067811865511300 ) ) ;
#95 = VERTEX_POINT ( 'NONE', #141 ) ;
#96 = EDGE_LOOP ( 'NONE', ( #304, #271, #30, #14 ) ) ;
#97 = AXIS2_PLACEMENT_3D ( 'NONE', #211, #46, #240 ) ;
#98 =( NAMED_UNIT ( * ) SI_UNIT ( $, .STERADIAN. ) SOLID_ANGLE_UNIT ( ) );
#99 = DIRECTION ( 'NONE',  ( -0.0000000000000000000, 1.000000000000000000, -0.0000000000000000000 ) ) ;
#100 = DIRECTION ( 'NONE',  ( -0.0000000000000000000, -1.000000000000000000, -0.0000000000000000000 ) ) ;
#101 = DIRECTION ( 'NONE',  ( -0.0000000000000000000, -1.000000000000000000, -0.0000000000000000000 ) ) ;
#102 = FILL_AREA_STYLE ('',( #228 ) ) ;
#103 = LINE ( 'NONE', #203, #154 ) ;
#104 =( GEOMETRIC_REPRESENTATION_CONTEXT ( 3 ) GLOBAL_UNCERTAINTY_ASSIGNED_CONTEXT ( ( #217 ) ) GLOBAL_UNIT_ASSIGNED_CONTEXT ( ( #92, #263, #113 ) ) REPRESENTATION_CONTEXT ( 'NONE', 'WORKASPACE' ) );
#105 = CARTESIAN_POINT ( 'NONE',  ( 0.0000000000000000000, 1.867000000000000000, 0.0000000000000000000 ) ) ;
#106 = CARTESIAN_POINT ( 'NONE',  ( 0.0000000000000000000, 0.01000000000000126000, 0.0000000000000000000 ) ) ;
#107 = DIRECTION ( 'NONE',  ( 0.0000000000000000000, 0.0000000000000000000, -1.000000000000000000 ) ) ;
#108 = CYLINDRICAL_SURFACE ( 'NONE', #89, 0.2600000000000000100 ) ;
#109 = ADVANCED_FACE ( 'NONE', ( #323 ), #5, .T. ) ;
#110 = ADVANCED_FACE ( 'NONE', ( #55, #45 ), #165, .T. ) ;
#111 = CARTESIAN_POINT ( 'NONE',  ( 0.0000000000000000000, 1.867000000000000000, 0.0000000000000000000 ) ) ;
#112 = MECHANICAL_DESIGN_GEOMETRIC_PRESENTATION_REPRESENTATION (  '', ( #125 ), #104 ) ;
#113 =( NAMED_UNIT ( * ) SI_UNIT ( $, .STERADIAN. ) SOLID_ANGLE_UNIT ( ) );
#114 = COLOUR_RGB ( '',0.8941176470588234600, 0.9137254901960784000, 0.9294117647058823800 ) ;
#115 = EDGE_CURVE ( 'NONE', #75, #65, #188, .T. ) ;
#116 = CARTESIAN_POINT ( 'NONE',  ( 0.0000000000000000000, 1.857000000000000900, 0.0000000000000000000 ) ) ;
#117 = APPLICATION_PROTOCOL_DEFINITION ( 'draft international standard', 'automotive_design', 1998, #153 ) ;
#118 = AXIS2_PLACEMENT_3D ( 'NONE', #298, #26, #175 ) ;
#119 = DIRECTION ( 'NONE',  ( 0.0000000000000000000, 1.000000000000000000, 0.0000000000000000000 ) ) ;
#120 = CARTESIAN_POINT ( 'NONE',  ( 0.0000000000000000000, 0.0000000000000000000, 0.0000000000000000000 ) ) ;
#121 = DIRECTION ( 'NONE',  ( 0.0000000000000000000, 1.000000000000000000, 0.0000000000000000000 ) ) ;
#122 = CARTESIAN_POINT ( 'NONE',  ( 3.122849337825757900E-017, 1.867000000000000000, 0.2500000000000011100 ) ) ;
#123 = FACE_OUTER_BOUND ( 'NONE', #275, .T. ) ;
#124 = CONICAL_SURFACE ( 'NONE', #180, 0.2500000000000011100, 0.7853981633974380600 ) ;
#125 = STYLED_ITEM ( 'NONE', ( #319 ), #235 ) ;
#126 = EDGE_CURVE ( 'NONE', #290, #69, #320, .T. ) ;
#127 = CARTESIAN_POINT ( 'NONE',  ( 0.0000000000000000000, 1.867000000000000000, 0.0000000000000000000 ) ) ;
#128 = CONICAL_SURFACE ( 'NONE', #256, 0.2500000000000011100, 0.7853981633974380600 ) ;
#129 = CARTESIAN_POINT ( 'NONE',  ( 3.061616997868396600E-017, 1.867000000000000000, 0.2500000000000011100 ) ) ;
#130 = AXIS2_PLACEMENT_3D ( 'NONE', #120, #308, #156 ) ;
#131 = PRESENTATION_LAYER_ASSIGNMENT (  '', '', ( #125 ) ) ;
#132 = DIMENSIONAL_EXPONENTS ( 1.000000000000000000, 0.0000000000000000000, 0.0000000000000000000, 0.0000000000000000000, 0.0000000000000000000, 0.0000000000000000000, 0.0000000000000000000 ) ;
#133 = AXIS2_PLACEMENT_3D ( 'NONE', #106, #291, #7 ) ;
#134 = AXIS2_PLACEMENT_3D ( 'NONE', #127, #314, #160 ) ;
#135 = VECTOR ( 'NONE', #101, 39.37007874015748100 ) ;
#136 = ADVANCED_FACE ( 'NONE', ( #47 ), #181, .T. ) ;
#137 = AXIS2_PLACEMENT_3D ( 'NONE', #182, #32, #209 ) ;
#138 = CARTESIAN_POINT ( 'NONE',  ( 0.0000000000000000000, 0.01000000000000126000, 0.0000000000000000000 ) ) ;
#139 = AXIS2_PLACEMENT_3D ( 'NONE', #111, #318, #184 ) ;
#140 = FACE_OUTER_BOUND ( 'NONE', #277, .T. ) ;
#141 = CARTESIAN_POINT ( 'NONE',  ( 1.530808498934191200E-017, 0.0000000000000000000, 0.1250000000000000000 ) ) ;
#142 = ORIENTED_EDGE ( 'NONE', *, *, #276, .T. ) ;
#143 = ORIENTED_EDGE ( 'NONE', *, *, #272, .F. ) ;
#144 = ORIENTED_EDGE ( 'NONE', *, *, #282, .T. ) ;
#145 = VECTOR ( 'NONE', #81, 39.37007874015748100 ) ;
#146 = CARTESIAN_POINT ( 'NONE',  ( 0.0000000000000000000, 1.867000000000000000, 0.0000000000000000000 ) ) ;
#147 = ORIENTED_EDGE ( 'NONE', *, *, #288, .F. ) ;
#148 = ORIENTED_EDGE ( 'NONE', *, *, #284, .F. ) ;
#149 = DIRECTION ( 'NONE',  ( 0.0000000000000000000, 0.0000000000000000000, 1.000000000000000000 ) ) ;
#150 = VERTEX_POINT ( 'NONE', #29 ) ;
#151 = EDGE_LOOP ( 'NONE', ( #166, #214 ) ) ;
#152 = ORIENTED_EDGE ( 'NONE', *, *, #259, .F. ) ;
#153 = APPLICATION_CONTEXT ( 'automotive_design' ) ;
#154 = VECTOR ( 'NONE', #33, 39.37007874015748900 ) ;
#155 = CARTESIAN_POINT ( 'NONE',  ( 0.0000000000000000000, 0.01000000000000126000, 0.0000000000000000000 ) ) ;
#156 = DIRECTION ( 'NONE',  ( 0.0000000000000000000, -0.0000000000000000000, 1.000000000000000000 ) ) ;
#157 = ORIENTED_EDGE ( 'NONE', *, *, #273, .F. ) ;
#158 = EDGE_LOOP ( 'NONE', ( #9, #19 ) ) ;
#159 = EDGE_LOOP ( 'NONE', ( #196, #207, #80, #152 ) ) ;
#160 = DIRECTION ( 'NONE',  ( 0.0000000000000000000, 0.0000000000000000000, 1.000000000000000000 ) ) ;
#161 = EDGE_LOOP ( 'NONE', ( #285, #234, #86, #221 ) ) ;
#162 = AXIS2_PLACEMENT_3D ( 'NONE', #105, #93, #267 ) ;
#163 = ORIENTED_EDGE ( 'NONE', *, *, #273, .T. ) ;
#164 = VECTOR ( 'NONE', #293, 39.37007874015748900 ) ;
#165 = PLANE ( 'NONE',  #137 ) ;
#166 = ORIENTED_EDGE ( 'NONE', *, *, #289, .T. ) ;
#167 = UNCERTAINTY_MEASURE_WITH_UNIT (LENGTH_MEASURE( 1.000000000000000100E-005 ), #57, 'distance_accuracy_value', 'NONE');
#168 = VECTOR ( 'NONE', #178, 39.37007874015748900 ) ;
#169 = PRODUCT ( 'am-2262 1.867'''''''' aluminum spacer', 'am-2262 1.867'''''''' aluminum spacer', '', ( #42 ) ) ;
#170 = CARTESIAN_POINT ( 'NONE',  ( 0.0000000000000000000, 1.867000000000000000, 0.0000000000000000000 ) ) ;
#171 = CARTESIAN_POINT ( 'NONE',  ( 0.0000000000000000000, 1.857000000000000900, 0.0000000000000000000 ) ) ;
#172 = SURFACE_STYLE_USAGE ( .BOTH. , #1 ) ;
#173 =( NAMED_UNIT ( * ) SI_UNIT ( $, .STERADIAN. ) SOLID_ANGLE_UNIT ( ) );
#174 = CARTESIAN_POINT ( 'NONE',  ( 0.0000000000000000000, 0.0000000000000000000, 0.0000000000000000000 ) ) ;
#175 = DIRECTION ( 'NONE',  ( 0.0000000000000000000, 0.0000000000000000000, -1.000000000000000000 ) ) ;
#176 = PRODUCT_DEFINITION_SHAPE ( 'NONE', 'NONE',  #52 ) ;
#177 = ORIENTED_EDGE ( 'NONE', *, *, #17, .T. ) ;
#178 = DIRECTION ( 'NONE',  ( 0.0000000000000000000, -0.7071067811865546800, -0.7071067811865402500 ) ) ;
#179 = DIMENSIONAL_EXPONENTS ( 1.000000000000000000, 0.0000000000000000000, 0.0000000000000000000, 0.0000000000000000000, 0.0000000000000000000, 0.0000000000000000000, 0.0000000000000000000 ) ;
#180 = AXIS2_PLACEMENT_3D ( 'NONE', #170, #305, #260 ) ;
#181 = CONICAL_SURFACE ( 'NONE', #133, 0.2600000000000000100, 0.7853981633974533900 ) ;
#182 = CARTESIAN_POINT ( 'NONE',  ( 0.0000000000000000000, 1.867000000000000000, 0.0000000000000000000 ) ) ;
#183 = FACE_BOUND ( 'NONE', #212, .T. ) ;
#184 = DIRECTION ( 'NONE',  ( 0.0000000000000000000, 0.0000000000000000000, -1.000000000000000000 ) ) ;
#185 = FILL_AREA_STYLE ('',( #3 ) ) ;
#186 = CONICAL_SURFACE ( 'NONE', #76, 0.2600000000000000100, 0.7853981633974533900 ) ;
#187 = CIRCLE ( 'NONE', #73, 0.2600000000000000100 ) ;
#188 = CIRCLE ( 'NONE', #242, 0.2600000000000000100 ) ;
#189 = CARTESIAN_POINT ( 'NONE',  ( 3.184081677783118700E-017, 0.01000000000000126000, -0.2600000000000000100 ) ) ;
#190 = CARTESIAN_POINT ( 'NONE',  ( 1.530808498934191200E-017, 1.867000000000000000, 0.1250000000000000000 ) ) ;
#191 = CIRCLE ( 'NONE', #252, 0.2600000000000000100 ) ;
#192 = DIRECTION ( 'NONE',  ( 0.0000000000000000000, 0.0000000000000000000, 1.000000000000000000 ) ) ;
#193 = CARTESIAN_POINT ( 'NONE',  ( 0.0000000000000000000, 1.867000000000000000, 0.0000000000000000000 ) ) ;
#194 = DIRECTION ( 'NONE',  ( 0.0000000000000000000, 0.0000000000000000000, 1.000000000000000000 ) ) ;
#195 =( CONVERSION_BASED_UNIT ( 'INCH', #274 ) LENGTH_UNIT ( ) NAMED_UNIT ( #132 ) );
#196 = ORIENTED_EDGE ( 'NONE', *, *, #126, .F. ) ;
#197 = DIRECTION ( 'NONE',  ( 0.0000000000000000000, 0.0000000000000000000, 1.000000000000000000 ) ) ;
#198 = CARTESIAN_POINT ( 'NONE',  ( 3.184081677783117500E-017, 1.857000000000000900, 0.2600000000000000100 ) ) ;
#199 = CIRCLE ( 'NONE', #78, 0.2499999999999986400 ) ;
#200 = CARTESIAN_POINT ( 'NONE',  ( 0.0000000000000000000, 1.867000000000000000, 0.0000000000000000000 ) ) ;
#201 = DIRECTION ( 'NONE',  ( 1.000000000000000000, 0.0000000000000000000, 0.0000000000000000000 ) ) ;
#202 = CARTESIAN_POINT ( 'NONE',  ( 0.0000000000000000000, 0.0000000000000000000, 0.2499999999999986400 ) ) ;
#203 = CARTESIAN_POINT ( 'NONE',  ( 0.0000000000000000000, 0.01000000000000126000, 0.2600000000000000100 ) ) ;
#204 = ORIENTED_EDGE ( 'NONE', *, *, #276, .F. ) ;
#205 = ADVANCED_FACE ( 'NONE', ( #248, #183 ), #279, .F. ) ;
#206 = ORIENTED_EDGE ( 'NONE', *, *, #288, .T. ) ;
#207 = ORIENTED_EDGE ( 'NONE', *, *, #262, .T. ) ;
#208 = LINE ( 'NONE', #317, #145 ) ;
#209 = DIRECTION ( 'NONE',  ( 0.0000000000000000000, -0.0000000000000000000, 1.000000000000000000 ) ) ;
#210 = ADVANCED_FACE ( 'NONE', ( #247 ), #316, .F. ) ;
#211 = CARTESIAN_POINT ( 'NONE',  ( 0.0000000000000000000, 0.01000000000000126000, 0.0000000000000000000 ) ) ;
#212 = EDGE_LOOP ( 'NONE', ( #144, #177 ) ) ;
#213 = ORIENTED_EDGE ( 'NONE', *, *, #284, .T. ) ;
#214 = ORIENTED_EDGE ( 'NONE', *, *, #126, .T. ) ;
#215 = CLOSED_SHELL ( 'NONE', ( #74, #315, #31, #239, #110, #205, #109, #210, #136, #11 ) ) ;
#216 = VERTEX_POINT ( 'NONE', #202 ) ;
#217 = UNCERTAINTY_MEASURE_WITH_UNIT (LENGTH_MEASURE( 1.000000000000000100E-005 ), #92, 'distance_accuracy_value', 'NONE');
#218 = ORIENTED_EDGE ( 'NONE', *, *, #295, .F. ) ;
#219 = SURFACE_SIDE_STYLE ('',( #41 ) ) ;
#220 = DIRECTION ( 'NONE',  ( 0.0000000000000000000, 1.000000000000000000, 0.0000000000000000000 ) ) ;
#221 = ORIENTED_EDGE ( 'NONE', *, *, #12, .F. ) ;
#222 = DIRECTION ( 'NONE',  ( -0.0000000000000000000, -1.000000000000000000, -0.0000000000000000000 ) ) ;
#223 = VERTEX_POINT ( 'NONE', #198 ) ;
#224 = ORIENTED_EDGE ( 'NONE', *, *, #286, .T. ) ;
#225 =( LENGTH_UNIT ( ) NAMED_UNIT ( * ) SI_UNIT ( $, .METRE. ) );
#226 = DIRECTION ( 'NONE',  ( 0.0000000000000000000, 0.0000000000000000000, 1.000000000000000000 ) ) ;
#227 = CARTESIAN_POINT ( 'NONE',  ( 0.0000000000000000000, 1.867000000000000000, -0.2600000000000000100 ) ) ;
#228 = FILL_AREA_STYLE_COLOUR ( '', #312 ) ;
#229 = DIRECTION ( 'NONE',  ( 0.0000000000000000000, -1.000000000000000000, 0.0000000000000000000 ) ) ;
#230 = ORIENTED_EDGE ( 'NONE', *, *, #115, .T. ) ;
#231 = UNCERTAINTY_MEASURE_WITH_UNIT (LENGTH_MEASURE( 1.000000000000000100E-005 ), #195, 'distance_accuracy_value', 'NONE');
#232 = APPLICATION_CONTEXT ( 'automotive_design' ) ;
#233 = LINE ( 'NONE', #129, #164 ) ;
#234 = ORIENTED_EDGE ( 'NONE', *, *, #289, .F. ) ;
#235 = MANIFOLD_SOLID_BREP ( 'Chamfer1', #215 ) ;
#236 = CIRCLE ( 'NONE', #97, 0.2600000000000000100 ) ;
#237 = CARTESIAN_POINT ( 'NONE',  ( 0.0000000000000000000, 1.867000000000000000, -0.2500000000000011100 ) ) ;
#238 = PRESENTATION_STYLE_ASSIGNMENT (( #172 ) ) ;
#239 = ADVANCED_FACE ( 'NONE', ( #44 ), #108, .T. ) ;
#240 = DIRECTION ( 'NONE',  ( 0.0000000000000000000, 0.0000000000000000000, 1.000000000000000000 ) ) ;
#241 =( LENGTH_UNIT ( ) NAMED_UNIT ( * ) SI_UNIT ( $, .METRE. ) );
#242 = AXIS2_PLACEMENT_3D ( 'NONE', #138, #35, #251 ) ;
#243 = PRODUCT_DEFINITION_CONTEXT ( 'detailed design', #232, 'design' ) ;
#244 =( NAMED_UNIT ( * ) PLANE_ANGLE_UNIT ( ) SI_UNIT ( $, .RADIAN. ) );
#245 = LENGTH_MEASURE_WITH_UNIT ( LENGTH_MEASURE( 0.02539999999999999900 ), #225 );
#246 = DIRECTION ( 'NONE',  ( -0.0000000000000000000, -1.000000000000000000, -0.0000000000000000000 ) ) ;
#247 = FACE_OUTER_BOUND ( 'NONE', #287, .T. ) ;
#248 = FACE_OUTER_BOUND ( 'NONE', #158, .T. ) ;
#249 = CARTESIAN_POINT ( 'NONE',  ( 0.0000000000000000000, 1.867000000000000000, -0.1250000000000000000 ) ) ;
#250 = AXIS2_PLACEMENT_3D ( 'NONE', #36, #220, #51 ) ;
#251 = DIRECTION ( 'NONE',  ( 0.0000000000000000000, 0.0000000000000000000, 1.000000000000000000 ) ) ;
#252 = AXIS2_PLACEMENT_3D ( 'NONE', #116, #38, #149 ) ;
#253 = SHAPE_DEFINITION_REPRESENTATION ( #176, #299 ) ;
#254 = SURFACE_STYLE_FILL_AREA ( #102 ) ;
#255 = CIRCLE ( 'NONE', #79, 0.1250000000000000000 ) ;
#256 = AXIS2_PLACEMENT_3D ( 'NONE', #200, #229, #63 ) ;
#257 = CARTESIAN_POINT ( 'NONE',  ( 0.0000000000000000000, 1.867000000000000000, -0.1250000000000000000 ) ) ;
#258 = FACE_OUTER_BOUND ( 'NONE', #159, .T. ) ;
#259 = EDGE_CURVE ( 'NONE', #69, #150, #310, .T. ) ;
#260 = DIRECTION ( 'NONE',  ( 0.0000000000000000000, 0.0000000000000000000, -1.000000000000000000 ) ) ;
#261 = ORIENTED_EDGE ( 'NONE', *, *, #282, .F. ) ;
#262 = EDGE_CURVE ( 'NONE', #290, #223, #233, .T. ) ;
#263 =( NAMED_UNIT ( * ) PLANE_ANGLE_UNIT ( ) SI_UNIT ( $, .RADIAN. ) );
#264 = VECTOR ( 'NONE', #300, 39.37007874015748100 ) ;
#265 = EDGE_CURVE ( 'NONE', #13, #216, #34, .T. ) ;
#266 = EDGE_CURVE ( 'NONE', #13, #75, #306, .T. ) ;
#267 = DIRECTION ( 'NONE',  ( 0.0000000000000000000, 0.0000000000000000000, -1.000000000000000000 ) ) ;
#268 = EDGE_CURVE ( 'NONE', #65, #75, #236, .T. ) ;
#269 = CARTESIAN_POINT ( 'NONE',  ( 0.0000000000000000000, 1.867000000000000000, 0.0000000000000000000 ) ) ;
#270 = EDGE_LOOP ( 'NONE', ( #15, #224, #83, #147 ) ) ;
#271 = ORIENTED_EDGE ( 'NONE', *, *, #297, .F. ) ;
#272 = EDGE_CURVE ( 'NONE', #216, #65, #103, .T. ) ;
#273 = EDGE_CURVE ( 'NONE', #20, #70, #18, .T. ) ;
#274 = LENGTH_MEASURE_WITH_UNIT ( LENGTH_MEASURE( 0.02539999999999999900 ), #24 );
#275 = EDGE_LOOP ( 'NONE', ( #58, #27, #56, #143 ) ) ;
#276 = EDGE_CURVE ( 'NONE', #70, #95, #208, .T. ) ;
#277 = EDGE_LOOP ( 'NONE', ( #163, #142, #261, #148 ) ) ;
#278 = CARTESIAN_POINT ( 'NONE',  ( 0.0000000000000000000, 1.867000000000000000, 0.0000000000000000000 ) ) ;
#279 = PLANE ( 'NONE',  #130 ) ;
#280 = CIRCLE ( 'NONE', #84, 0.1250000000000000000 ) ;
#281 = CARTESIAN_POINT ( 'NONE',  ( 0.0000000000000000000, 0.0000000000000000000, 0.0000000000000000000 ) ) ;
#282 = EDGE_CURVE ( 'NONE', #301, #95, #280, .T. ) ;
#283 = CARTESIAN_POINT ( 'NONE',  ( 0.0000000000000000000, 0.0000000000000000000, -0.1250000000000000000 ) ) ;
#284 = EDGE_CURVE ( 'NONE', #20, #301, #60, .T. ) ;
#285 = ORIENTED_EDGE ( 'NONE', *, *, #262, .F. ) ;
#286 = EDGE_CURVE ( 'NONE', #223, #65, #77, .T. ) ;
#287 = EDGE_LOOP ( 'NONE', ( #204, #88, #213, #72 ) ) ;
#288 = EDGE_CURVE ( 'NONE', #150, #75, #10, .T. ) ;
#289 = EDGE_CURVE ( 'NONE', #69, #290, #50, .T. ) ;
#290 = VERTEX_POINT ( 'NONE', #122 ) ;
#291 = DIRECTION ( 'NONE',  ( -0.0000000000000000000, 1.000000000000000000, -0.0000000000000000000 ) ) ;
#292 = FACE_OUTER_BOUND ( 'NONE', #161, .T. ) ;
#293 = DIRECTION ( 'NONE',  ( 8.659560562354842900E-017, -0.7071067811865546800, 0.7071067811865402500 ) ) ;
#294 = ORIENTED_EDGE ( 'NONE', *, *, #12, .T. ) ;
#295 = EDGE_CURVE ( 'NONE', #70, #20, #255, .T. ) ;
#296 = DIMENSIONAL_EXPONENTS ( 1.000000000000000000, 0.0000000000000000000, 0.0000000000000000000, 0.0000000000000000000, 0.0000000000000000000, 0.0000000000000000000, 0.0000000000000000000 ) ;
#297 = EDGE_CURVE ( 'NONE', #216, #13, #199, .T. ) ;
#298 = CARTESIAN_POINT ( 'NONE',  ( 0.0000000000000000000, 1.867000000000000000, 0.0000000000000000000 ) ) ;
#299 = ADVANCED_BREP_SHAPE_REPRESENTATION ( 'am-2262 1.867'''''''' aluminum spacer', ( #235, #54 ), #71 ) ;
#300 = DIRECTION ( 'NONE',  ( -0.0000000000000000000, -1.000000000000000000, -0.0000000000000000000 ) ) ;
#301 = VERTEX_POINT ( 'NONE', #283 ) ;
#302 = CARTESIAN_POINT ( 'NONE',  ( 0.0000000000000000000, 0.01000000000000126000, -0.2600000000000000100 ) ) ;
#303 = VECTOR ( 'NONE', #94, 39.37007874015748900 ) ;
#304 = ORIENTED_EDGE ( 'NONE', *, *, #266, .F. ) ;
#305 = DIRECTION ( 'NONE',  ( 0.0000000000000000000, -1.000000000000000000, 0.0000000000000000000 ) ) ;
#306 = LINE ( 'NONE', #189, #303 ) ;
#307 = DIRECTION ( 'NONE',  ( 0.0000000000000000000, 0.0000000000000000000, 1.000000000000000000 ) ) ;
#308 = DIRECTION ( 'NONE',  ( 0.0000000000000000000, 1.000000000000000000, 0.0000000000000000000 ) ) ;
#309 = DIRECTION ( 'NONE',  ( 0.0000000000000000000, 0.0000000000000000000, 1.000000000000000000 ) ) ;
#310 = LINE ( 'NONE', #8, #168 ) ;
#311 = LENGTH_MEASURE_WITH_UNIT ( LENGTH_MEASURE( 0.02539999999999999900 ), #241 );
#312 = COLOUR_RGB ( '',0.8941176470588234600, 0.9137254901960784000, 0.9294117647058823800 ) ;
#313 = CARTESIAN_POINT ( 'NONE',  ( 3.122849337825742500E-017, 0.0000000000000000000, -0.2499999999999986400 ) ) ;
#314 = DIRECTION ( 'NONE',  ( 0.0000000000000000000, 1.000000000000000000, 0.0000000000000000000 ) ) ;
#315 = ADVANCED_FACE ( 'NONE', ( #123 ), #186, .T. ) ;
#316 = CYLINDRICAL_SURFACE ( 'NONE', #118, 0.1250000000000000000 ) ;
#317 = CARTESIAN_POINT ( 'NONE',  ( 1.530808498934191200E-017, 1.867000000000000000, 0.1250000000000000000 ) ) ;
#318 = DIRECTION ( 'NONE',  ( -0.0000000000000000000, -1.000000000000000000, -0.0000000000000000000 ) ) ;
#319 = PRESENTATION_STYLE_ASSIGNMENT (( #49 ) ) ;
#320 = CIRCLE ( 'NONE', #134, 0.2500000000000011100 ) ;
#321 = CARTESIAN_POINT ( 'NONE',  ( 3.184081677783117500E-017, 0.01000000000000126000, 0.2600000000000000100 ) ) ;
#322 = EDGE_CURVE ( 'NONE', #150, #223, #187, .T. ) ;
#323 = FACE_OUTER_BOUND ( 'NONE', #16, .T. ) ;
ENDSEC;
END-ISO-10303-21;
