ISO-10303-21;
HEADER;
FILE_DESCRIPTION (( 'STEP AP214' ),
    '1' );
FILE_NAME ('am-2271 185x385, nylon, 0.625 od, 0.385 id, 0.185 thick, white.STEP',
    '2014-08-21T20:17:01',
    ( '' ),
    ( '' ),
    'SwSTEP 2.0',
    'SolidWorks 2014',
    '' );
FILE_SCHEMA (( 'AUTOMOTIVE_DESIGN' ));
ENDSEC;

DATA;
#1 = VECTOR ( 'NONE', #135, 39.37007874015748100 ) ;
#2 = UNCERTAINTY_MEASURE_WITH_UNIT (LENGTH_MEASURE( 1.000000000000000100E-005 ), #221, 'distance_accuracy_value', 'NONE');
#3 =( CONVERSION_BASED_UNIT ( 'INCH', #81 ) LENGTH_UNIT ( ) NAMED_UNIT ( #131 ) );
#4 =( LENGTH_UNIT ( ) NAMED_UNIT ( * ) SI_UNIT ( $, .METRE. ) );
#5 = SURFACE_STYLE_FILL_AREA ( #119 ) ;
#6 = CARTESIAN_POINT ( 'NONE',  ( 0.0000000000000000000, 0.1850000000000000000, -0.3125000000000000000 ) ) ;
#7 = SURFACE_SIDE_STYLE ('',( #75 ) ) ;
#8 = VERTEX_POINT ( 'NONE', #154 ) ;
#9 = DIRECTION ( 'NONE',  ( 0.0000000000000000000, 0.0000000000000000000, 1.000000000000000000 ) ) ;
#10 = ORIENTED_EDGE ( 'NONE', *, *, #180, .F. ) ;
#11 = EDGE_LOOP ( 'NONE', ( #144, #110, #116, #115 ) ) ;
#12 = PRODUCT_DEFINITION_SHAPE ( 'NONE', 'NONE',  #76 ) ;
#13 = DIRECTION ( 'NONE',  ( 0.0000000000000000000, 0.0000000000000000000, 1.000000000000000000 ) ) ;
#14 = CARTESIAN_POINT ( 'NONE',  ( 0.0000000000000000000, 0.0000000000000000000, 0.0000000000000000000 ) ) ;
#15 = DIRECTION ( 'NONE',  ( 0.0000000000000000000, 1.000000000000000000, 0.0000000000000000000 ) ) ;
#16 = ORIENTED_EDGE ( 'NONE', *, *, #195, .T. ) ;
#17 = CARTESIAN_POINT ( 'NONE',  ( 0.0000000000000000000, 0.0000000000000000000, 0.0000000000000000000 ) ) ;
#18 = CYLINDRICAL_SURFACE ( 'NONE', #203, 0.1925000000000000000 ) ;
#19 = FACE_BOUND ( 'NONE', #213, .T. ) ;
#20 = CARTESIAN_POINT ( 'NONE',  ( 3.827021247335478900E-017, 0.1850000000000000000, 0.3125000000000000000 ) ) ;
#21 =( LENGTH_UNIT ( ) NAMED_UNIT ( * ) SI_UNIT ( $, .METRE. ) );
#22 = CYLINDRICAL_SURFACE ( 'NONE', #187, 0.3125000000000000000 ) ;
#23 =( NAMED_UNIT ( * ) SI_UNIT ( $, .STERADIAN. ) SOLID_ANGLE_UNIT ( ) );
#24 = COLOUR_RGB ( '',1.000000000000000000, 1.000000000000000000, 1.000000000000000000 ) ;
#25 = ORIENTED_EDGE ( 'NONE', *, *, #190, .T. ) ;
#26 = FACE_OUTER_BOUND ( 'NONE', #11, .T. ) ;
#27 = FACE_OUTER_BOUND ( 'NONE', #198, .T. ) ;
#28 = VERTEX_POINT ( 'NONE', #48 ) ;
#29 = ORIENTED_EDGE ( 'NONE', *, *, #190, .F. ) ;
#30 = ORIENTED_EDGE ( 'NONE', *, *, #192, .T. ) ;
#31 = MECHANICAL_DESIGN_GEOMETRIC_PRESENTATION_REPRESENTATION (  '', ( #188 ), #38 ) ;
#32 = PRESENTATION_STYLE_ASSIGNMENT (( #123 ) ) ;
#33 = DIRECTION ( 'NONE',  ( 0.0000000000000000000, 1.000000000000000000, 0.0000000000000000000 ) ) ;
#34 = FILL_AREA_STYLE_COLOUR ( '', #122 ) ;
#35 = MANIFOLD_SOLID_BREP ( 'Boss-Extrude1', #103 ) ;
#36 = EDGE_LOOP ( 'NONE', ( #60, #216, #30, #74 ) ) ;
#37 =( NAMED_UNIT ( * ) PLANE_ANGLE_UNIT ( ) SI_UNIT ( $, .RADIAN. ) );
#38 =( GEOMETRIC_REPRESENTATION_CONTEXT ( 3 ) GLOBAL_UNCERTAINTY_ASSIGNED_CONTEXT ( ( #2 ) ) GLOBAL_UNIT_ASSIGNED_CONTEXT ( ( #221, #165, #173 ) ) REPRESENTATION_CONTEXT ( 'NONE', 'WORKASPACE' ) );
#39 = CARTESIAN_POINT ( 'NONE',  ( 3.827021247335478900E-017, 0.1850000000000000000, 0.3125000000000000000 ) ) ;
#40 = DIRECTION ( 'NONE',  ( 0.0000000000000000000, 0.0000000000000000000, 1.000000000000000000 ) ) ;
#41 = VECTOR ( 'NONE', #133, 39.37007874015748100 ) ;
#42 = LINE ( 'NONE', #6, #1 ) ;
#43 = VECTOR ( 'NONE', #191, 39.37007874015748100 ) ;
#44 = DIRECTION ( 'NONE',  ( 0.0000000000000000000, 0.0000000000000000000, 1.000000000000000000 ) ) ;
#45 = CARTESIAN_POINT ( 'NONE',  ( 0.0000000000000000000, 0.1850000000000000000, 0.0000000000000000000 ) ) ;
#46 = CARTESIAN_POINT ( 'NONE',  ( 2.357445088358654600E-017, 0.0000000000000000000, 0.1925000000000000000 ) ) ;
#47 = DIRECTION ( 'NONE',  ( 0.0000000000000000000, -0.0000000000000000000, 1.000000000000000000 ) ) ;
#48 = CARTESIAN_POINT ( 'NONE',  ( 0.0000000000000000000, 0.0000000000000000000, -0.1925000000000000000 ) ) ;
#49 =( LENGTH_UNIT ( ) NAMED_UNIT ( * ) SI_UNIT ( $, .METRE. ) );
#50 = PLANE ( 'NONE',  #186 ) ;
#51 = SURFACE_STYLE_USAGE ( .BOTH. , #91 ) ;
#52 = PRODUCT_CONTEXT ( 'NONE', #219, 'mechanical' ) ;
#53 = VERTEX_POINT ( 'NONE', #218 ) ;
#54 = PRODUCT_RELATED_PRODUCT_CATEGORY ( 'part', '', ( #204 ) ) ;
#55 = ORIENTED_EDGE ( 'NONE', *, *, #174, .F. ) ;
#56 = FACE_OUTER_BOUND ( 'NONE', #36, .T. ) ;
#57 = LENGTH_MEASURE_WITH_UNIT ( LENGTH_MEASURE( 0.02539999999999999900 ), #21 );
#58 = EDGE_CURVE ( 'NONE', #8, #118, #67, .T. ) ;
#59 = DIRECTION ( 'NONE',  ( 0.0000000000000000000, 1.000000000000000000, 0.0000000000000000000 ) ) ;
#60 = ORIENTED_EDGE ( 'NONE', *, *, #206, .F. ) ;
#61 = VERTEX_POINT ( 'NONE', #70 ) ;
#62 = UNCERTAINTY_MEASURE_WITH_UNIT (LENGTH_MEASURE( 1.000000000000000100E-005 ), #3, 'distance_accuracy_value', 'NONE');
#63 = CARTESIAN_POINT ( 'NONE',  ( 0.0000000000000000000, 0.0000000000000000000, 0.0000000000000000000 ) ) ;
#64 = CARTESIAN_POINT ( 'NONE',  ( 0.0000000000000000000, 0.1850000000000000000, 0.0000000000000000000 ) ) ;
#65 = PRODUCT_DEFINITION_FORMATION_WITH_SPECIFIED_SOURCE ( 'ANY', '', #204, .NOT_KNOWN. ) ;
#66 = DIRECTION ( 'NONE',  ( 0.0000000000000000000, 1.000000000000000000, 0.0000000000000000000 ) ) ;
#67 = CIRCLE ( 'NONE', #95, 0.1925000000000000000 ) ;
#68 = DIRECTION ( 'NONE',  ( -0.0000000000000000000, -1.000000000000000000, -0.0000000000000000000 ) ) ;
#69 = FACE_BOUND ( 'NONE', #132, .T. ) ;
#70 = CARTESIAN_POINT ( 'NONE',  ( 0.0000000000000000000, 0.0000000000000000000, -0.3125000000000000000 ) ) ;
#71 = EDGE_LOOP ( 'NONE', ( #29, #146 ) ) ;
#72 = ORIENTED_EDGE ( 'NONE', *, *, #174, .T. ) ;
#73 = APPLICATION_PROTOCOL_DEFINITION ( 'draft international standard', 'automotive_design', 1998, #178 ) ;
#74 = ORIENTED_EDGE ( 'NONE', *, *, #195, .F. ) ;
#75 = SURFACE_STYLE_FILL_AREA ( #104 ) ;
#76 = PRODUCT_DEFINITION ( 'UNKNOWN', '', #65, #106 ) ;
#77 = EDGE_LOOP ( 'NONE', ( #162, #212 ) ) ;
#78 = CIRCLE ( 'NONE', #161, 0.1925000000000000000 ) ;
#79 = PRESENTATION_LAYER_ASSIGNMENT (  '', '', ( #188 ) ) ;
#80 = CARTESIAN_POINT ( 'NONE',  ( 2.357445088358654600E-017, 0.1850000000000000000, 0.1925000000000000000 ) ) ;
#81 = LENGTH_MEASURE_WITH_UNIT ( LENGTH_MEASURE( 0.02539999999999999900 ), #4 );
#82 = AXIS2_PLACEMENT_3D ( 'NONE', #14, #40, #160 ) ;
#83 = UNCERTAINTY_MEASURE_WITH_UNIT (LENGTH_MEASURE( 1.000000000000000100E-005 ), #141, 'distance_accuracy_value', 'NONE');
#84 = CARTESIAN_POINT ( 'NONE',  ( 0.0000000000000000000, 0.1850000000000000000, 0.0000000000000000000 ) ) ;
#85 = DIRECTION ( 'NONE',  ( 0.0000000000000000000, 0.0000000000000000000, -1.000000000000000000 ) ) ;
#86 = LINE ( 'NONE', #80, #41 ) ;
#87 =( GEOMETRIC_REPRESENTATION_CONTEXT ( 3 ) GLOBAL_UNCERTAINTY_ASSIGNED_CONTEXT ( ( #83 ) ) GLOBAL_UNIT_ASSIGNED_CONTEXT ( ( #141, #126, #23 ) ) REPRESENTATION_CONTEXT ( 'NONE', 'WORKASPACE' ) );
#88 = DIRECTION ( 'NONE',  ( -0.0000000000000000000, -1.000000000000000000, -0.0000000000000000000 ) ) ;
#89 = CIRCLE ( 'NONE', #107, 0.3125000000000000000 ) ;
#90 = MECHANICAL_DESIGN_GEOMETRIC_PRESENTATION_REPRESENTATION (  '', ( #94 ), #87 ) ;
#91 = SURFACE_SIDE_STYLE ('',( #5 ) ) ;
#92 = PRESENTATION_LAYER_ASSIGNMENT (  '', '', ( #94 ) ) ;
#93 = ADVANCED_BREP_SHAPE_REPRESENTATION ( 'am-2271 185x385, nylon, 0.625 od, 0.385 id, 0.185 thick, white', ( #35, #82 ), #96 ) ;
#94 = STYLED_ITEM ( 'NONE', ( #32 ), #93 ) ;
#95 = AXIS2_PLACEMENT_3D ( 'NONE', #202, #200, #199 ) ;
#96 =( GEOMETRIC_REPRESENTATION_CONTEXT ( 3 ) GLOBAL_UNCERTAINTY_ASSIGNED_CONTEXT ( ( #62 ) ) GLOBAL_UNIT_ASSIGNED_CONTEXT ( ( #3, #37, #169 ) ) REPRESENTATION_CONTEXT ( 'NONE', 'WORKASPACE' ) );
#97 = AXIS2_PLACEMENT_3D ( 'NONE', #63, #59, #44 ) ;
#98 = LINE ( 'NONE', #100, #43 ) ;
#99 = EDGE_CURVE ( 'NONE', #28, #163, #209, .T. ) ;
#100 = CARTESIAN_POINT ( 'NONE',  ( 0.0000000000000000000, 0.1850000000000000000, -0.1925000000000000000 ) ) ;
#101 = DIRECTION ( 'NONE',  ( -0.0000000000000000000, -1.000000000000000000, -0.0000000000000000000 ) ) ;
#102 = DIRECTION ( 'NONE',  ( -0.0000000000000000000, -1.000000000000000000, -0.0000000000000000000 ) ) ;
#103 = CLOSED_SHELL ( 'NONE', ( #134, #140, #147, #138, #145, #142 ) ) ;
#104 = FILL_AREA_STYLE ('',( #34 ) ) ;
#105 = CARTESIAN_POINT ( 'NONE',  ( 0.0000000000000000000, 0.1850000000000000000, 0.0000000000000000000 ) ) ;
#106 = PRODUCT_DEFINITION_CONTEXT ( 'detailed design', #178, 'design' ) ;
#107 = AXIS2_PLACEMENT_3D ( 'NONE', #117, #114, #113 ) ;
#108 = ORIENTED_EDGE ( 'NONE', *, *, #183, .F. ) ;
#109 = CYLINDRICAL_SURFACE ( 'NONE', #194, 0.1925000000000000000 ) ;
#110 = ORIENTED_EDGE ( 'NONE', *, *, #206, .T. ) ;
#111 = VERTEX_POINT ( 'NONE', #215 ) ;
#112 = FACE_OUTER_BOUND ( 'NONE', #71, .T. ) ;
#113 = DIRECTION ( 'NONE',  ( 0.0000000000000000000, 0.0000000000000000000, 1.000000000000000000 ) ) ;
#114 = DIRECTION ( 'NONE',  ( 0.0000000000000000000, 1.000000000000000000, 0.0000000000000000000 ) ) ;
#115 = ORIENTED_EDGE ( 'NONE', *, *, #192, .F. ) ;
#116 = ORIENTED_EDGE ( 'NONE', *, *, #99, .F. ) ;
#117 = CARTESIAN_POINT ( 'NONE',  ( 0.0000000000000000000, 0.0000000000000000000, 0.0000000000000000000 ) ) ;
#118 = VERTEX_POINT ( 'NONE', #175 ) ;
#119 = FILL_AREA_STYLE ('',( #137 ) ) ;
#120 = DIMENSIONAL_EXPONENTS ( 1.000000000000000000, 0.0000000000000000000, 0.0000000000000000000, 0.0000000000000000000, 0.0000000000000000000, 0.0000000000000000000, 0.0000000000000000000 ) ;
#121 = DIRECTION ( 'NONE',  ( 0.0000000000000000000, 0.0000000000000000000, -1.000000000000000000 ) ) ;
#122 = COLOUR_RGB ( '',1.000000000000000000, 1.000000000000000000, 1.000000000000000000 ) ;
#123 = SURFACE_STYLE_USAGE ( .BOTH. , #7 ) ;
#124 = CARTESIAN_POINT ( 'NONE',  ( 0.0000000000000000000, 0.1850000000000000000, 0.0000000000000000000 ) ) ;
#125 = DIRECTION ( 'NONE',  ( 0.0000000000000000000, -0.0000000000000000000, 1.000000000000000000 ) ) ;
#126 =( NAMED_UNIT ( * ) PLANE_ANGLE_UNIT ( ) SI_UNIT ( $, .RADIAN. ) );
#127 = LENGTH_MEASURE_WITH_UNIT ( LENGTH_MEASURE( 0.02539999999999999900 ), #49 );
#128 = CIRCLE ( 'NONE', #185, 0.3125000000000000000 ) ;
#129 = DIMENSIONAL_EXPONENTS ( 1.000000000000000000, 0.0000000000000000000, 0.0000000000000000000, 0.0000000000000000000, 0.0000000000000000000, 0.0000000000000000000, 0.0000000000000000000 ) ;
#130 = VECTOR ( 'NONE', #88, 39.37007874015748100 ) ;
#131 = DIMENSIONAL_EXPONENTS ( 1.000000000000000000, 0.0000000000000000000, 0.0000000000000000000, 0.0000000000000000000, 0.0000000000000000000, 0.0000000000000000000, 0.0000000000000000000 ) ;
#132 = EDGE_LOOP ( 'NONE', ( #208, #148 ) ) ;
#133 = DIRECTION ( 'NONE',  ( -0.0000000000000000000, -1.000000000000000000, -0.0000000000000000000 ) ) ;
#134 = ADVANCED_FACE ( 'NONE', ( #26 ), #18, .F. ) ;
#135 = DIRECTION ( 'NONE',  ( -0.0000000000000000000, -1.000000000000000000, -0.0000000000000000000 ) ) ;
#136 = DIRECTION ( 'NONE',  ( 0.0000000000000000000, 0.0000000000000000000, -1.000000000000000000 ) ) ;
#137 = FILL_AREA_STYLE_COLOUR ( '', #24 ) ;
#138 = ADVANCED_FACE ( 'NONE', ( #112, #19 ), #139, .F. ) ;
#139 = PLANE ( 'NONE',  #201 ) ;
#140 = ADVANCED_FACE ( 'NONE', ( #153 ), #210, .T. ) ;
#141 =( CONVERSION_BASED_UNIT ( 'INCH', #57 ) LENGTH_UNIT ( ) NAMED_UNIT ( #120 ) );
#142 = ADVANCED_FACE ( 'NONE', ( #56 ), #109, .F. ) ;
#143 = DIRECTION ( 'NONE',  ( -0.0000000000000000000, -1.000000000000000000, -0.0000000000000000000 ) ) ;
#144 = ORIENTED_EDGE ( 'NONE', *, *, #58, .T. ) ;
#145 = ADVANCED_FACE ( 'NONE', ( #27 ), #22, .T. ) ;
#146 = ORIENTED_EDGE ( 'NONE', *, *, #167, .F. ) ;
#147 = ADVANCED_FACE ( 'NONE', ( #155, #69 ), #50, .T. ) ;
#148 = ORIENTED_EDGE ( 'NONE', *, *, #189, .F. ) ;
#149 = DIRECTION ( 'NONE',  ( 0.0000000000000000000, 0.0000000000000000000, 1.000000000000000000 ) ) ;
#150 = DIRECTION ( 'NONE',  ( 0.0000000000000000000, 1.000000000000000000, 0.0000000000000000000 ) ) ;
#151 = ORIENTED_EDGE ( 'NONE', *, *, #180, .T. ) ;
#152 = CARTESIAN_POINT ( 'NONE',  ( 0.0000000000000000000, 0.0000000000000000000, 0.0000000000000000000 ) ) ;
#153 = FACE_OUTER_BOUND ( 'NONE', #159, .T. ) ;
#154 = CARTESIAN_POINT ( 'NONE',  ( 0.0000000000000000000, 0.1850000000000000000, -0.1925000000000000000 ) ) ;
#155 = FACE_OUTER_BOUND ( 'NONE', #77, .T. ) ;
#156 = DIRECTION ( 'NONE',  ( 0.0000000000000000000, 1.000000000000000000, 0.0000000000000000000 ) ) ;
#157 = DIRECTION ( 'NONE',  ( 0.0000000000000000000, 0.0000000000000000000, -1.000000000000000000 ) ) ;
#158 = VERTEX_POINT ( 'NONE', #39 ) ;
#159 = EDGE_LOOP ( 'NONE', ( #182, #72, #223, #10 ) ) ;
#160 = DIRECTION ( 'NONE',  ( 1.000000000000000000, 0.0000000000000000000, 0.0000000000000000000 ) ) ;
#161 = AXIS2_PLACEMENT_3D ( 'NONE', #164, #150, #149 ) ;
#162 = ORIENTED_EDGE ( 'NONE', *, *, #183, .T. ) ;
#163 = VERTEX_POINT ( 'NONE', #46 ) ;
#164 = CARTESIAN_POINT ( 'NONE',  ( 0.0000000000000000000, 0.1850000000000000000, 0.0000000000000000000 ) ) ;
#165 =( NAMED_UNIT ( * ) PLANE_ANGLE_UNIT ( ) SI_UNIT ( $, .RADIAN. ) );
#166 = DIRECTION ( 'NONE',  ( 0.0000000000000000000, 0.0000000000000000000, 1.000000000000000000 ) ) ;
#167 = EDGE_CURVE ( 'NONE', #53, #61, #207, .T. ) ;
#168 = DIRECTION ( 'NONE',  ( 0.0000000000000000000, 1.000000000000000000, 0.0000000000000000000 ) ) ;
#169 =( NAMED_UNIT ( * ) SI_UNIT ( $, .STERADIAN. ) SOLID_ANGLE_UNIT ( ) );
#170 = CARTESIAN_POINT ( 'NONE',  ( 0.0000000000000000000, 0.0000000000000000000, 0.0000000000000000000 ) ) ;
#171 = CIRCLE ( 'NONE', #177, 0.3125000000000000000 ) ;
#172 = CARTESIAN_POINT ( 'NONE',  ( 0.0000000000000000000, 0.1850000000000000000, 0.0000000000000000000 ) ) ;
#173 =( NAMED_UNIT ( * ) SI_UNIT ( $, .STERADIAN. ) SOLID_ANGLE_UNIT ( ) );
#174 = EDGE_CURVE ( 'NONE', #158, #53, #181, .T. ) ;
#175 = CARTESIAN_POINT ( 'NONE',  ( 2.357445088358654600E-017, 0.1850000000000000000, 0.1925000000000000000 ) ) ;
#176 = PRESENTATION_STYLE_ASSIGNMENT (( #51 ) ) ;
#177 = AXIS2_PLACEMENT_3D ( 'NONE', #214, #211, #193 ) ;
#178 = APPLICATION_CONTEXT ( 'automotive_design' ) ;
#179 = CIRCLE ( 'NONE', #97, 0.1925000000000000000 ) ;
#180 = EDGE_CURVE ( 'NONE', #111, #61, #42, .T. ) ;
#181 = LINE ( 'NONE', #20, #130 ) ;
#182 = ORIENTED_EDGE ( 'NONE', *, *, #184, .F. ) ;
#183 = EDGE_CURVE ( 'NONE', #111, #158, #128, .T. ) ;
#184 = EDGE_CURVE ( 'NONE', #158, #111, #171, .T. ) ;
#185 = AXIS2_PLACEMENT_3D ( 'NONE', #45, #33, #13 ) ;
#186 = AXIS2_PLACEMENT_3D ( 'NONE', #64, #66, #47 ) ;
#187 = AXIS2_PLACEMENT_3D ( 'NONE', #84, #68, #85 ) ;
#188 = STYLED_ITEM ( 'NONE', ( #176 ), #35 ) ;
#189 = EDGE_CURVE ( 'NONE', #118, #8, #78, .T. ) ;
#190 = EDGE_CURVE ( 'NONE', #61, #53, #89, .T. ) ;
#191 = DIRECTION ( 'NONE',  ( -0.0000000000000000000, -1.000000000000000000, -0.0000000000000000000 ) ) ;
#192 = EDGE_CURVE ( 'NONE', #8, #28, #98, .T. ) ;
#193 = DIRECTION ( 'NONE',  ( 0.0000000000000000000, 0.0000000000000000000, 1.000000000000000000 ) ) ;
#194 = AXIS2_PLACEMENT_3D ( 'NONE', #105, #101, #121 ) ;
#195 = EDGE_CURVE ( 'NONE', #163, #28, #179, .T. ) ;
#196 = AXIS2_PLACEMENT_3D ( 'NONE', #124, #143, #136 ) ;
#197 = APPLICATION_PROTOCOL_DEFINITION ( 'draft international standard', 'automotive_design', 1998, #219 ) ;
#198 = EDGE_LOOP ( 'NONE', ( #55, #108, #151, #25 ) ) ;
#199 = DIRECTION ( 'NONE',  ( 0.0000000000000000000, 0.0000000000000000000, 1.000000000000000000 ) ) ;
#200 = DIRECTION ( 'NONE',  ( 0.0000000000000000000, 1.000000000000000000, 0.0000000000000000000 ) ) ;
#201 = AXIS2_PLACEMENT_3D ( 'NONE', #152, #156, #125 ) ;
#202 = CARTESIAN_POINT ( 'NONE',  ( 0.0000000000000000000, 0.1850000000000000000, 0.0000000000000000000 ) ) ;
#203 = AXIS2_PLACEMENT_3D ( 'NONE', #172, #102, #157 ) ;
#204 = PRODUCT ( 'am-2271 185x385, nylon, 0.625 od, 0.385 id, 0.185 thick, white', 'am-2271 185x385, nylon, 0.625 od, 0.385 id, 0.185 thick, white', '', ( #52 ) ) ;
#205 = ORIENTED_EDGE ( 'NONE', *, *, #99, .T. ) ;
#206 = EDGE_CURVE ( 'NONE', #118, #163, #86, .T. ) ;
#207 = CIRCLE ( 'NONE', #217, 0.3125000000000000000 ) ;
#208 = ORIENTED_EDGE ( 'NONE', *, *, #58, .F. ) ;
#209 = CIRCLE ( 'NONE', #220, 0.1925000000000000000 ) ;
#210 = CYLINDRICAL_SURFACE ( 'NONE', #196, 0.3125000000000000000 ) ;
#211 = DIRECTION ( 'NONE',  ( 0.0000000000000000000, 1.000000000000000000, 0.0000000000000000000 ) ) ;
#212 = ORIENTED_EDGE ( 'NONE', *, *, #184, .T. ) ;
#213 = EDGE_LOOP ( 'NONE', ( #205, #16 ) ) ;
#214 = CARTESIAN_POINT ( 'NONE',  ( 0.0000000000000000000, 0.1850000000000000000, 0.0000000000000000000 ) ) ;
#215 = CARTESIAN_POINT ( 'NONE',  ( 0.0000000000000000000, 0.1850000000000000000, -0.3125000000000000000 ) ) ;
#216 = ORIENTED_EDGE ( 'NONE', *, *, #189, .T. ) ;
#217 = AXIS2_PLACEMENT_3D ( 'NONE', #17, #15, #9 ) ;
#218 = CARTESIAN_POINT ( 'NONE',  ( 3.827021247335478900E-017, 0.0000000000000000000, 0.3125000000000000000 ) ) ;
#219 = APPLICATION_CONTEXT ( 'automotive_design' ) ;
#220 = AXIS2_PLACEMENT_3D ( 'NONE', #170, #168, #166 ) ;
#221 =( CONVERSION_BASED_UNIT ( 'INCH', #127 ) LENGTH_UNIT ( ) NAMED_UNIT ( #129 ) );
#222 = SHAPE_DEFINITION_REPRESENTATION ( #12, #93 ) ;
#223 = ORIENTED_EDGE ( 'NONE', *, *, #167, .T. ) ;
ENDSEC;
END-ISO-10303-21;
