ISO-10303-21;
HEADER;
FILE_DESCRIPTION (( 'STEP AP214' ),
    '1' );
FILE_NAME ('am-2333 0.125'''' id, 0.25'''' Long Bushing.STEP',
    '2014-08-21T20:59:16',
    ( '' ),
    ( '' ),
    'SwSTEP 2.0',
    'SolidWorks 2014',
    '' );
FILE_SCHEMA (( 'AUTOMOTIVE_DESIGN' ));
ENDSEC;

DATA;
#1 =( NAMED_UNIT ( * ) SI_UNIT ( $, .STERADIAN. ) SOLID_ANGLE_UNIT ( ) );
#2 =( NAMED_UNIT ( * ) PLANE_ANGLE_UNIT ( ) SI_UNIT ( $, .RADIAN. ) );
#3 = DIRECTION ( 'NONE',  ( 0.0000000000000000000, 0.0000000000000000000, -1.000000000000000000 ) ) ;
#4 =( CONVERSION_BASED_UNIT ( 'INCH', #19 ) LENGTH_UNIT ( ) NAMED_UNIT ( #128 ) );
#5 =( LENGTH_UNIT ( ) NAMED_UNIT ( * ) SI_UNIT ( $, .METRE. ) );
#6 = UNCERTAINTY_MEASURE_WITH_UNIT (LENGTH_MEASURE( 1.000000000000000100E-005 ), #4, 'distance_accuracy_value', 'NONE');
#7 = EDGE_CURVE ( 'NONE', #125, #221, #151, .T. ) ;
#8 = EDGE_CURVE ( 'NONE', #164, #222, #143, .T. ) ;
#9 = UNCERTAINTY_MEASURE_WITH_UNIT (LENGTH_MEASURE( 1.000000000000000100E-005 ), #76, 'distance_accuracy_value', 'NONE');
#10 = SURFACE_STYLE_USAGE ( .BOTH. , #11 ) ;
#11 = SURFACE_SIDE_STYLE ('',( #132 ) ) ;
#12 = FILL_AREA_STYLE ('',( #35 ) ) ;
#13 = APPLICATION_CONTEXT ( 'automotive_design' ) ;
#14 = MANIFOLD_SOLID_BREP ( 'Boss-Extrude1', #72 ) ;
#15 = APPLICATION_PROTOCOL_DEFINITION ( 'draft international standard', 'automotive_design', 1998, #13 ) ;
#16 = SHAPE_DEFINITION_REPRESENTATION ( #36, #68 ) ;
#17 = PRODUCT_DEFINITION_CONTEXT ( 'detailed design', #20, 'design' ) ;
#18 = APPLICATION_PROTOCOL_DEFINITION ( 'draft international standard', 'automotive_design', 1998, #20 ) ;
#19 = LENGTH_MEASURE_WITH_UNIT ( LENGTH_MEASURE( 0.02539999999999999900 ), #5 );
#20 = APPLICATION_CONTEXT ( 'automotive_design' ) ;
#21 =( NAMED_UNIT ( * ) SI_UNIT ( $, .STERADIAN. ) SOLID_ANGLE_UNIT ( ) );
#22 = PRODUCT_CONTEXT ( 'NONE', #13, 'mechanical' ) ;
#23 = DIRECTION ( 'NONE',  ( 1.000000000000000000, 0.0000000000000000000, 0.0000000000000000000 ) ) ;
#24 =( NAMED_UNIT ( * ) PLANE_ANGLE_UNIT ( ) SI_UNIT ( $, .RADIAN. ) );
#25 =( CONVERSION_BASED_UNIT ( 'INCH', #37 ) LENGTH_UNIT ( ) NAMED_UNIT ( #129 ) );
#26 =( LENGTH_UNIT ( ) NAMED_UNIT ( * ) SI_UNIT ( $, .METRE. ) );
#27 = DIRECTION ( 'NONE',  ( 0.0000000000000000000, 0.0000000000000000000, 1.000000000000000000 ) ) ;
#28 = ORIENTED_EDGE ( 'NONE', *, *, #8, .F. ) ;
#29 = DIRECTION ( 'NONE',  ( 0.0000000000000000000, 1.000000000000000000, 0.0000000000000000000 ) ) ;
#30 = CARTESIAN_POINT ( 'NONE',  ( 0.0000000000000000000, 0.2500000000000000000, 0.0000000000000000000 ) ) ;
#31 = CARTESIAN_POINT ( 'NONE',  ( 0.0000000000000000000, 0.2500000000000000000, 0.0000000000000000000 ) ) ;
#32 = ORIENTED_EDGE ( 'NONE', *, *, #210, .F. ) ;
#33 = ORIENTED_EDGE ( 'NONE', *, *, #214, .T. ) ;
#34 = CARTESIAN_POINT ( 'NONE',  ( 0.0000000000000000000, 0.0000000000000000000, 0.0000000000000000000 ) ) ;
#35 = FILL_AREA_STYLE_COLOUR ( '', #135 ) ;
#36 = PRODUCT_DEFINITION_SHAPE ( 'NONE', 'NONE',  #158 ) ;
#37 = LENGTH_MEASURE_WITH_UNIT ( LENGTH_MEASURE( 0.02539999999999999900 ), #26 );
#38 = DIRECTION ( 'NONE',  ( 0.0000000000000000000, 0.0000000000000000000, 1.000000000000000000 ) ) ;
#39 = DIRECTION ( 'NONE',  ( 0.0000000000000000000, 1.000000000000000000, 0.0000000000000000000 ) ) ;
#40 = CARTESIAN_POINT ( 'NONE',  ( 0.0000000000000000000, 0.0000000000000000000, 0.0000000000000000000 ) ) ;
#41 = CARTESIAN_POINT ( 'NONE',  ( 0.0000000000000000000, 0.2500000000000000000, -0.06250000000000000000 ) ) ;
#42 = EDGE_LOOP ( 'NONE', ( #190, #196, #202, #204 ) ) ;
#43 = DIRECTION ( 'NONE',  ( 0.0000000000000000000, 0.0000000000000000000, 1.000000000000000000 ) ) ;
#44 = CARTESIAN_POINT ( 'NONE',  ( 7.654042494670957500E-018, 0.2500000000000000000, 0.06250000000000000000 ) ) ;
#45 = CARTESIAN_POINT ( 'NONE',  ( 0.0000000000000000000, 0.0000000000000000000, -0.06250000000000000000 ) ) ;
#46 = ORIENTED_EDGE ( 'NONE', *, *, #208, .T. ) ;
#47 = VECTOR ( 'NONE', #82, 39.37007874015748100 ) ;
#48 = CIRCLE ( 'NONE', #175, 0.09350000000000002800 ) ;
#49 = LINE ( 'NONE', #51, #47 ) ;
#50 = DIRECTION ( 'NONE',  ( 0.0000000000000000000, 0.0000000000000000000, -1.000000000000000000 ) ) ;
#51 = CARTESIAN_POINT ( 'NONE',  ( 0.0000000000000000000, 0.2500000000000000000, -0.09350000000000002800 ) ) ;
#52 = ORIENTED_EDGE ( 'NONE', *, *, #215, .F. ) ;
#53 = ORIENTED_EDGE ( 'NONE', *, *, #216, .T. ) ;
#54 = DIRECTION ( 'NONE',  ( 0.0000000000000000000, 0.0000000000000000000, 1.000000000000000000 ) ) ;
#55 = DIRECTION ( 'NONE',  ( 0.0000000000000000000, 1.000000000000000000, 0.0000000000000000000 ) ) ;
#56 = CARTESIAN_POINT ( 'NONE',  ( 0.0000000000000000000, 0.2500000000000000000, 0.0000000000000000000 ) ) ;
#57 = CIRCLE ( 'NONE', #176, 0.09350000000000002800 ) ;
#58 = DIRECTION ( 'NONE',  ( -0.0000000000000000000, -1.000000000000000000, -0.0000000000000000000 ) ) ;
#59 = FILL_AREA_STYLE ('',( #118 ) ) ;
#60 = CARTESIAN_POINT ( 'NONE',  ( 1.145044757202775600E-017, 0.2500000000000000000, 0.09350000000000002800 ) ) ;
#61 = VECTOR ( 'NONE', #58, 39.37007874015748100 ) ;
#62 = LINE ( 'NONE', #60, #61 ) ;
#63 = CIRCLE ( 'NONE', #178, 0.09350000000000002800 ) ;
#64 = VECTOR ( 'NONE', #134, 39.37007874015748100 ) ;
#65 = CIRCLE ( 'NONE', #189, 0.09350000000000002800 ) ;
#66 = VECTOR ( 'NONE', #102, 39.37007874015748100 ) ;
#67 = ORIENTED_EDGE ( 'NONE', *, *, #207, .T. ) ;
#68 = ADVANCED_BREP_SHAPE_REPRESENTATION ( 'am-2333 0.125'''''''' id, 0.25'''''''' Long Bushing', ( #14, #160 ), #174 ) ;
#69 = DIRECTION ( 'NONE',  ( 0.0000000000000000000, 0.0000000000000000000, 1.000000000000000000 ) ) ;
#70 =( NAMED_UNIT ( * ) SI_UNIT ( $, .STERADIAN. ) SOLID_ANGLE_UNIT ( ) );
#71 = LINE ( 'NONE', #79, #64 ) ;
#72 = CLOSED_SHELL ( 'NONE', ( #144, #145, #131, #146, #141, #140 ) ) ;
#73 =( NAMED_UNIT ( * ) PLANE_ANGLE_UNIT ( ) SI_UNIT ( $, .RADIAN. ) );
#74 = DIRECTION ( 'NONE',  ( 0.0000000000000000000, 1.000000000000000000, 0.0000000000000000000 ) ) ;
#75 = CARTESIAN_POINT ( 'NONE',  ( 0.0000000000000000000, 0.2500000000000000000, 0.0000000000000000000 ) ) ;
#76 =( CONVERSION_BASED_UNIT ( 'INCH', #113 ) LENGTH_UNIT ( ) NAMED_UNIT ( #110 ) );
#77 = CIRCLE ( 'NONE', #180, 0.06250000000000000000 ) ;
#78 = VERTEX_POINT ( 'NONE', #114 ) ;
#79 = CARTESIAN_POINT ( 'NONE',  ( 7.654042494670957500E-018, 0.2500000000000000000, 0.06250000000000000000 ) ) ;
#80 = FACE_BOUND ( 'NONE', #108, .T. ) ;
#81 = EDGE_LOOP ( 'NONE', ( #32, #159, #33, #52 ) ) ;
#82 = DIRECTION ( 'NONE',  ( -0.0000000000000000000, -1.000000000000000000, -0.0000000000000000000 ) ) ;
#83 = SURFACE_STYLE_USAGE ( .BOTH. , #101 ) ;
#84 = CYLINDRICAL_SURFACE ( 'NONE', #185, 0.06250000000000000000 ) ;
#85 = PRODUCT ( 'am-2333 0.125'''''''' id, 0.25'''''''' Long Bushing', 'am-2333 0.125'''''''' id, 0.25'''''''' Long Bushing', '', ( #22 ) ) ;
#86 = FACE_OUTER_BOUND ( 'NONE', #209, .T. ) ;
#87 = CYLINDRICAL_SURFACE ( 'NONE', #186, 0.09350000000000002800 ) ;
#88 = CYLINDRICAL_SURFACE ( 'NONE', #184, 0.09350000000000002800 ) ;
#89 = VERTEX_POINT ( 'NONE', #126 ) ;
#90 = FACE_OUTER_BOUND ( 'NONE', #81, .T. ) ;
#91 = CYLINDRICAL_SURFACE ( 'NONE', #187, 0.06250000000000000000 ) ;
#92 = FACE_OUTER_BOUND ( 'NONE', #212, .T. ) ;
#93 = LINE ( 'NONE', #120, #66 ) ;
#94 = VERTEX_POINT ( 'NONE', #223 ) ;
#95 = DIRECTION ( 'NONE',  ( 0.0000000000000000000, 0.0000000000000000000, 1.000000000000000000 ) ) ;
#96 =( LENGTH_UNIT ( ) NAMED_UNIT ( * ) SI_UNIT ( $, .METRE. ) );
#97 = DIRECTION ( 'NONE',  ( 0.0000000000000000000, 1.000000000000000000, 0.0000000000000000000 ) ) ;
#98 = FACE_OUTER_BOUND ( 'NONE', #169, .T. ) ;
#99 = FACE_OUTER_BOUND ( 'NONE', #173, .T. ) ;
#100 = CARTESIAN_POINT ( 'NONE',  ( 0.0000000000000000000, 0.0000000000000000000, 0.0000000000000000000 ) ) ;
#101 = SURFACE_SIDE_STYLE ('',( #148 ) ) ;
#102 = DIRECTION ( 'NONE',  ( -0.0000000000000000000, -1.000000000000000000, -0.0000000000000000000 ) ) ;
#103 = FACE_OUTER_BOUND ( 'NONE', #42, .T. ) ;
#104 = CIRCLE ( 'NONE', #181, 0.06250000000000000000 ) ;
#105 = DIRECTION ( 'NONE',  ( 0.0000000000000000000, 1.000000000000000000, 0.0000000000000000000 ) ) ;
#106 = CARTESIAN_POINT ( 'NONE',  ( 0.0000000000000000000, 0.0000000000000000000, 0.0000000000000000000 ) ) ;
#107 = DIRECTION ( 'NONE',  ( 0.0000000000000000000, 0.0000000000000000000, 1.000000000000000000 ) ) ;
#108 = EDGE_LOOP ( 'NONE', ( #121, #122 ) ) ;
#109 = DIRECTION ( 'NONE',  ( 0.0000000000000000000, 1.000000000000000000, 0.0000000000000000000 ) ) ;
#110 = DIMENSIONAL_EXPONENTS ( 1.000000000000000000, 0.0000000000000000000, 0.0000000000000000000, 0.0000000000000000000, 0.0000000000000000000, 0.0000000000000000000, 0.0000000000000000000 ) ;
#111 = CARTESIAN_POINT ( 'NONE',  ( 0.0000000000000000000, 0.0000000000000000000, 0.0000000000000000000 ) ) ;
#112 = DIRECTION ( 'NONE',  ( 0.0000000000000000000, 0.0000000000000000000, 1.000000000000000000 ) ) ;
#113 = LENGTH_MEASURE_WITH_UNIT ( LENGTH_MEASURE( 0.02539999999999999900 ), #96 );
#114 = CARTESIAN_POINT ( 'NONE',  ( 1.145044757202775600E-017, 0.2500000000000000000, 0.09350000000000002800 ) ) ;
#115 = DIRECTION ( 'NONE',  ( 0.0000000000000000000, 0.0000000000000000000, 1.000000000000000000 ) ) ;
#116 = DIRECTION ( 'NONE',  ( 0.0000000000000000000, 1.000000000000000000, 0.0000000000000000000 ) ) ;
#117 = CARTESIAN_POINT ( 'NONE',  ( 1.145044757202775600E-017, 0.0000000000000000000, 0.09350000000000002800 ) ) ;
#118 = FILL_AREA_STYLE_COLOUR ( '', #154 ) ;
#119 = CARTESIAN_POINT ( 'NONE',  ( 7.654042494670957500E-018, 0.0000000000000000000, 0.06250000000000000000 ) ) ;
#120 = CARTESIAN_POINT ( 'NONE',  ( 0.0000000000000000000, 0.2500000000000000000, -0.06250000000000000000 ) ) ;
#121 = ORIENTED_EDGE ( 'NONE', *, *, #165, .T. ) ;
#122 = ORIENTED_EDGE ( 'NONE', *, *, #8, .T. ) ;
#123 = UNCERTAINTY_MEASURE_WITH_UNIT (LENGTH_MEASURE( 1.000000000000000100E-005 ), #25, 'distance_accuracy_value', 'NONE');
#124 = PRESENTATION_STYLE_ASSIGNMENT (( #10 ) ) ;
#125 = VERTEX_POINT ( 'NONE', #44 ) ;
#126 = CARTESIAN_POINT ( 'NONE',  ( 0.0000000000000000000, 0.2500000000000000000, -0.09350000000000002800 ) ) ;
#127 = DIRECTION ( 'NONE',  ( 0.0000000000000000000, -0.0000000000000000000, 1.000000000000000000 ) ) ;
#128 = DIMENSIONAL_EXPONENTS ( 1.000000000000000000, 0.0000000000000000000, 0.0000000000000000000, 0.0000000000000000000, 0.0000000000000000000, 0.0000000000000000000, 0.0000000000000000000 ) ;
#129 = DIMENSIONAL_EXPONENTS ( 1.000000000000000000, 0.0000000000000000000, 0.0000000000000000000, 0.0000000000000000000, 0.0000000000000000000, 0.0000000000000000000, 0.0000000000000000000 ) ;
#130 = PLANE ( 'NONE',  #182 ) ;
#131 = ADVANCED_FACE ( 'NONE', ( #98, #142 ), #199, .T. ) ;
#132 = SURFACE_STYLE_FILL_AREA ( #12 ) ;
#133 = VERTEX_POINT ( 'NONE', #117 ) ;
#134 = DIRECTION ( 'NONE',  ( -0.0000000000000000000, -1.000000000000000000, -0.0000000000000000000 ) ) ;
#135 = COLOUR_RGB ( '',0.7803921568627451000, 0.7607843137254901600, 0.7411764705882353300 ) ;
#136 = CARTESIAN_POINT ( 'NONE',  ( 0.0000000000000000000, 0.0000000000000000000, 0.0000000000000000000 ) ) ;
#137 = DIRECTION ( 'NONE',  ( 0.0000000000000000000, 1.000000000000000000, 0.0000000000000000000 ) ) ;
#138 = DIRECTION ( 'NONE',  ( -0.0000000000000000000, -1.000000000000000000, -0.0000000000000000000 ) ) ;
#139 = PRESENTATION_STYLE_ASSIGNMENT (( #83 ) ) ;
#140 = ADVANCED_FACE ( 'NONE', ( #92 ), #91, .F. ) ;
#141 = ADVANCED_FACE ( 'NONE', ( #103 ), #87, .T. ) ;
#142 = FACE_BOUND ( 'NONE', #155, .T. ) ;
#143 = CIRCLE ( 'NONE', #203, 0.06250000000000000000 ) ;
#144 = ADVANCED_FACE ( 'NONE', ( #99 ), #84, .F. ) ;
#145 = ADVANCED_FACE ( 'NONE', ( #90 ), #88, .T. ) ;
#146 = ADVANCED_FACE ( 'NONE', ( #86, #80 ), #130, .F. ) ;
#147 = ORIENTED_EDGE ( 'NONE', *, *, #7, .F. ) ;
#148 = SURFACE_STYLE_FILL_AREA ( #59 ) ;
#149 = ORIENTED_EDGE ( 'NONE', *, *, #162, .F. ) ;
#150 = CARTESIAN_POINT ( 'NONE',  ( 0.0000000000000000000, 0.2500000000000000000, 0.0000000000000000000 ) ) ;
#151 = CIRCLE ( 'NONE', #205, 0.06250000000000000000 ) ;
#152 = DIRECTION ( 'NONE',  ( 0.0000000000000000000, 0.0000000000000000000, -1.000000000000000000 ) ) ;
#153 = DIRECTION ( 'NONE',  ( -0.0000000000000000000, -1.000000000000000000, -0.0000000000000000000 ) ) ;
#154 = COLOUR_RGB ( '',0.7803921568627451000, 0.7607843137254901600, 0.7411764705882353300 ) ;
#155 = EDGE_LOOP ( 'NONE', ( #179, #147 ) ) ;
#156 = ORIENTED_EDGE ( 'NONE', *, *, #165, .F. ) ;
#157 = CARTESIAN_POINT ( 'NONE',  ( 0.0000000000000000000, 0.2500000000000000000, 0.0000000000000000000 ) ) ;
#158 = PRODUCT_DEFINITION ( 'UNKNOWN', '', #170, #17 ) ;
#159 = ORIENTED_EDGE ( 'NONE', *, *, #213, .T. ) ;
#160 = AXIS2_PLACEMENT_3D ( 'NONE', #34, #43, #23 ) ;
#161 = PRODUCT_RELATED_PRODUCT_CATEGORY ( 'part', '', ( #85 ) ) ;
#162 = EDGE_CURVE ( 'NONE', #94, #133, #65, .T. ) ;
#163 = ORIENTED_EDGE ( 'NONE', *, *, #206, .F. ) ;
#164 = VERTEX_POINT ( 'NONE', #119 ) ;
#165 = EDGE_CURVE ( 'NONE', #222, #164, #104, .T. ) ;
#166 =( GEOMETRIC_REPRESENTATION_CONTEXT ( 3 ) GLOBAL_UNCERTAINTY_ASSIGNED_CONTEXT ( ( #6 ) ) GLOBAL_UNIT_ASSIGNED_CONTEXT ( ( #4, #2, #1 ) ) REPRESENTATION_CONTEXT ( 'NONE', 'WORKASPACE' ) );
#167 = MECHANICAL_DESIGN_GEOMETRIC_PRESENTATION_REPRESENTATION (  '', ( #171 ), #166 ) ;
#168 = PRESENTATION_LAYER_ASSIGNMENT (  '', '', ( #171 ) ) ;
#169 = EDGE_LOOP ( 'NONE', ( #53, #172 ) ) ;
#170 = PRODUCT_DEFINITION_FORMATION_WITH_SPECIFIED_SOURCE ( 'ANY', '', #85, .NOT_KNOWN. ) ;
#171 = STYLED_ITEM ( 'NONE', ( #124 ), #68 ) ;
#172 = ORIENTED_EDGE ( 'NONE', *, *, #210, .T. ) ;
#173 = EDGE_LOOP ( 'NONE', ( #67, #46, #156, #163 ) ) ;
#174 =( GEOMETRIC_REPRESENTATION_CONTEXT ( 3 ) GLOBAL_UNCERTAINTY_ASSIGNED_CONTEXT ( ( #123 ) ) GLOBAL_UNIT_ASSIGNED_CONTEXT ( ( #25, #24, #21 ) ) REPRESENTATION_CONTEXT ( 'NONE', 'WORKASPACE' ) );
#175 = AXIS2_PLACEMENT_3D ( 'NONE', #30, #29, #27 ) ;
#176 = AXIS2_PLACEMENT_3D ( 'NONE', #40, #39, #38 ) ;
#177 = DIRECTION ( 'NONE',  ( -0.0000000000000000000, -1.000000000000000000, -0.0000000000000000000 ) ) ;
#178 = AXIS2_PLACEMENT_3D ( 'NONE', #56, #55, #54 ) ;
#179 = ORIENTED_EDGE ( 'NONE', *, *, #207, .F. ) ;
#180 = AXIS2_PLACEMENT_3D ( 'NONE', #75, #74, #69 ) ;
#181 = AXIS2_PLACEMENT_3D ( 'NONE', #100, #97, #95 ) ;
#182 = AXIS2_PLACEMENT_3D ( 'NONE', #136, #137, #127 ) ;
#183 = CARTESIAN_POINT ( 'NONE',  ( 0.0000000000000000000, 0.2500000000000000000, 0.0000000000000000000 ) ) ;
#184 = AXIS2_PLACEMENT_3D ( 'NONE', #150, #138, #152 ) ;
#185 = AXIS2_PLACEMENT_3D ( 'NONE', #31, #153, #50 ) ;
#186 = AXIS2_PLACEMENT_3D ( 'NONE', #183, #177, #3 ) ;
#187 = AXIS2_PLACEMENT_3D ( 'NONE', #194, #191, #219 ) ;
#188 = ORIENTED_EDGE ( 'NONE', *, *, #214, .F. ) ;
#189 = AXIS2_PLACEMENT_3D ( 'NONE', #111, #109, #107 ) ;
#190 = ORIENTED_EDGE ( 'NONE', *, *, #213, .F. ) ;
#191 = DIRECTION ( 'NONE',  ( -0.0000000000000000000, -1.000000000000000000, -0.0000000000000000000 ) ) ;
#192 = AXIS2_PLACEMENT_3D ( 'NONE', #220, #198, #197 ) ;
#193 =( GEOMETRIC_REPRESENTATION_CONTEXT ( 3 ) GLOBAL_UNCERTAINTY_ASSIGNED_CONTEXT ( ( #9 ) ) GLOBAL_UNIT_ASSIGNED_CONTEXT ( ( #76, #73, #70 ) ) REPRESENTATION_CONTEXT ( 'NONE', 'WORKASPACE' ) );
#194 = CARTESIAN_POINT ( 'NONE',  ( 0.0000000000000000000, 0.2500000000000000000, 0.0000000000000000000 ) ) ;
#195 = MECHANICAL_DESIGN_GEOMETRIC_PRESENTATION_REPRESENTATION (  '', ( #201 ), #193 ) ;
#196 = ORIENTED_EDGE ( 'NONE', *, *, #216, .F. ) ;
#197 = DIRECTION ( 'NONE',  ( 0.0000000000000000000, -0.0000000000000000000, 1.000000000000000000 ) ) ;
#198 = DIRECTION ( 'NONE',  ( 0.0000000000000000000, 1.000000000000000000, 0.0000000000000000000 ) ) ;
#199 = PLANE ( 'NONE',  #192 ) ;
#200 = PRESENTATION_LAYER_ASSIGNMENT (  '', '', ( #201 ) ) ;
#201 = STYLED_ITEM ( 'NONE', ( #139 ), #14 ) ;
#202 = ORIENTED_EDGE ( 'NONE', *, *, #215, .T. ) ;
#203 = AXIS2_PLACEMENT_3D ( 'NONE', #106, #105, #112 ) ;
#204 = ORIENTED_EDGE ( 'NONE', *, *, #162, .T. ) ;
#205 = AXIS2_PLACEMENT_3D ( 'NONE', #157, #116, #115 ) ;
#206 = EDGE_CURVE ( 'NONE', #221, #222, #93, .T. ) ;
#207 = EDGE_CURVE ( 'NONE', #221, #125, #77, .T. ) ;
#208 = EDGE_CURVE ( 'NONE', #125, #164, #71, .T. ) ;
#209 = EDGE_LOOP ( 'NONE', ( #149, #188 ) ) ;
#210 = EDGE_CURVE ( 'NONE', #78, #89, #63, .T. ) ;
#211 = ORIENTED_EDGE ( 'NONE', *, *, #208, .F. ) ;
#212 = EDGE_LOOP ( 'NONE', ( #211, #217, #218, #28 ) ) ;
#213 = EDGE_CURVE ( 'NONE', #78, #133, #62, .T. ) ;
#214 = EDGE_CURVE ( 'NONE', #133, #94, #57, .T. ) ;
#215 = EDGE_CURVE ( 'NONE', #89, #94, #49, .T. ) ;
#216 = EDGE_CURVE ( 'NONE', #89, #78, #48, .T. ) ;
#217 = ORIENTED_EDGE ( 'NONE', *, *, #7, .T. ) ;
#218 = ORIENTED_EDGE ( 'NONE', *, *, #206, .T. ) ;
#219 = DIRECTION ( 'NONE',  ( 0.0000000000000000000, 0.0000000000000000000, -1.000000000000000000 ) ) ;
#220 = CARTESIAN_POINT ( 'NONE',  ( 0.0000000000000000000, 0.2500000000000000000, 0.0000000000000000000 ) ) ;
#221 = VERTEX_POINT ( 'NONE', #41 ) ;
#222 = VERTEX_POINT ( 'NONE', #45 ) ;
#223 = CARTESIAN_POINT ( 'NONE',  ( 0.0000000000000000000, 0.0000000000000000000, -0.09350000000000002800 ) ) ;
ENDSEC;
END-ISO-10303-21;
