ISO-10303-21;
HEADER;
FILE_DESCRIPTION (( 'STEP AP214' ),
    '1' );
FILE_NAME ('am-2334 3-16'''' id, 0.25'''' Long Bushing.STEP',
    '2014-08-21T20:58:54',
    ( '' ),
    ( '' ),
    'SwSTEP 2.0',
    'SolidWorks 2014',
    '' );
FILE_SCHEMA (( 'AUTOMOTIVE_DESIGN' ));
ENDSEC;

DATA;
#1 = CARTESIAN_POINT ( 'NONE',  ( 0.0000000000000000000, 0.2500000000000000000, 0.0000000000000000000 ) ) ;
#2 = PRODUCT_DEFINITION_SHAPE ( 'NONE', 'NONE',  #151 ) ;
#3 = DIRECTION ( 'NONE',  ( -0.0000000000000000000, -1.000000000000000000, -0.0000000000000000000 ) ) ;
#4 =( NAMED_UNIT ( * ) SI_UNIT ( $, .STERADIAN. ) SOLID_ANGLE_UNIT ( ) );
#5 =( NAMED_UNIT ( * ) PLANE_ANGLE_UNIT ( ) SI_UNIT ( $, .RADIAN. ) );
#6 = CARTESIAN_POINT ( 'NONE',  ( 0.0000000000000000000, 0.0000000000000000000, -0.09375000000000001400 ) ) ;
#7 =( CONVERSION_BASED_UNIT ( 'INCH', #134 ) LENGTH_UNIT ( ) NAMED_UNIT ( #108 ) );
#8 = SURFACE_STYLE_USAGE ( .BOTH. , #9 ) ;
#9 = SURFACE_SIDE_STYLE ('',( #136 ) ) ;
#10 = FILL_AREA_STYLE ('',( #16 ) ) ;
#11 = PLANE ( 'NONE',  #191 ) ;
#12 = DIRECTION ( 'NONE',  ( 0.0000000000000000000, -0.0000000000000000000, 1.000000000000000000 ) ) ;
#13 = DIRECTION ( 'NONE',  ( 0.0000000000000000000, 0.0000000000000000000, -1.000000000000000000 ) ) ;
#14 = APPLICATION_PROTOCOL_DEFINITION ( 'draft international standard', 'automotive_design', 1998, #15 ) ;
#15 = APPLICATION_CONTEXT ( 'automotive_design' ) ;
#16 = FILL_AREA_STYLE_COLOUR ( '', #195 ) ;
#17 = CARTESIAN_POINT ( 'NONE',  ( 0.0000000000000000000, 0.0000000000000000000, 0.0000000000000000000 ) ) ;
#18 = PRODUCT_CONTEXT ( 'NONE', #30, 'mechanical' ) ;
#19 = DIRECTION ( 'NONE',  ( 1.000000000000000000, 0.0000000000000000000, 0.0000000000000000000 ) ) ;
#20 = DIRECTION ( 'NONE',  ( 0.0000000000000000000, 0.0000000000000000000, 1.000000000000000000 ) ) ;
#21 = SHAPE_DEFINITION_REPRESENTATION ( #2, #90 ) ;
#22 =( NAMED_UNIT ( * ) SI_UNIT ( $, .STERADIAN. ) SOLID_ANGLE_UNIT ( ) );
#23 = DIRECTION ( 'NONE',  ( 0.0000000000000000000, 1.000000000000000000, 0.0000000000000000000 ) ) ;
#24 =( NAMED_UNIT ( * ) PLANE_ANGLE_UNIT ( ) SI_UNIT ( $, .RADIAN. ) );
#25 =( CONVERSION_BASED_UNIT ( 'INCH', #31 ) LENGTH_UNIT ( ) NAMED_UNIT ( #92 ) );
#26 =( LENGTH_UNIT ( ) NAMED_UNIT ( * ) SI_UNIT ( $, .METRE. ) );
#27 = SURFACE_STYLE_USAGE ( .BOTH. , #28 ) ;
#28 = SURFACE_SIDE_STYLE ('',( #37 ) ) ;
#29 = FILL_AREA_STYLE ('',( #52 ) ) ;
#30 = APPLICATION_CONTEXT ( 'automotive_design' ) ;
#31 = LENGTH_MEASURE_WITH_UNIT ( LENGTH_MEASURE( 0.02539999999999999900 ), #26 );
#32 = VERTEX_POINT ( 'NONE', #45 ) ;
#33 = APPLICATION_PROTOCOL_DEFINITION ( 'draft international standard', 'automotive_design', 1998, #30 ) ;
#34 = ORIENTED_EDGE ( 'NONE', *, *, #212, .F. ) ;
#35 = UNCERTAINTY_MEASURE_WITH_UNIT (LENGTH_MEASURE( 1.000000000000000100E-005 ), #7, 'distance_accuracy_value', 'NONE');
#36 = PRESENTATION_STYLE_ASSIGNMENT (( #27 ) ) ;
#37 = SURFACE_STYLE_FILL_AREA ( #29 ) ;
#38 = COLOUR_RGB ( '',0.7803921568627451000, 0.7607843137254901600, 0.7411764705882353300 ) ;
#39 =( NAMED_UNIT ( * ) SI_UNIT ( $, .STERADIAN. ) SOLID_ANGLE_UNIT ( ) );
#40 =( NAMED_UNIT ( * ) PLANE_ANGLE_UNIT ( ) SI_UNIT ( $, .RADIAN. ) );
#41 =( CONVERSION_BASED_UNIT ( 'INCH', #50 ) LENGTH_UNIT ( ) NAMED_UNIT ( #109 ) );
#42 =( LENGTH_UNIT ( ) NAMED_UNIT ( * ) SI_UNIT ( $, .METRE. ) );
#43 = DIRECTION ( 'NONE',  ( 0.0000000000000000000, 0.0000000000000000000, 1.000000000000000000 ) ) ;
#44 = DIRECTION ( 'NONE',  ( 0.0000000000000000000, 1.000000000000000000, 0.0000000000000000000 ) ) ;
#45 = CARTESIAN_POINT ( 'NONE',  ( 0.0000000000000000000, 0.2500000000000000000, -0.09375000000000001400 ) ) ;
#46 = CARTESIAN_POINT ( 'NONE',  ( 0.0000000000000000000, 0.2500000000000000000, 0.0000000000000000000 ) ) ;
#47 = PLANE ( 'NONE',  #194 ) ;
#48 = CARTESIAN_POINT ( 'NONE',  ( 0.0000000000000000000, 0.2500000000000000000, 0.0000000000000000000 ) ) ;
#49 = CARTESIAN_POINT ( 'NONE',  ( 0.0000000000000000000, 0.0000000000000000000, 0.0000000000000000000 ) ) ;
#50 = LENGTH_MEASURE_WITH_UNIT ( LENGTH_MEASURE( 0.02539999999999999900 ), #42 );
#51 = VERTEX_POINT ( 'NONE', #106 ) ;
#52 = FILL_AREA_STYLE_COLOUR ( '', #38 ) ;
#53 = EDGE_LOOP ( 'NONE', ( #137, #101, #139, #34 ) ) ;
#54 = DIRECTION ( 'NONE',  ( 0.0000000000000000000, 0.0000000000000000000, 1.000000000000000000 ) ) ;
#55 = DIRECTION ( 'NONE',  ( 0.0000000000000000000, 1.000000000000000000, 0.0000000000000000000 ) ) ;
#56 = VERTEX_POINT ( 'NONE', #140 ) ;
#57 = CARTESIAN_POINT ( 'NONE',  ( 0.0000000000000000000, 0.0000000000000000000, 0.0000000000000000000 ) ) ;
#58 = DIRECTION ( 'NONE',  ( 0.0000000000000000000, 1.000000000000000000, 0.0000000000000000000 ) ) ;
#59 = EDGE_LOOP ( 'NONE', ( #222, #173, #107, #128 ) ) ;
#60 = CARTESIAN_POINT ( 'NONE',  ( 0.0000000000000000000, 0.0000000000000000000, 0.0000000000000000000 ) ) ;
#61 = DIRECTION ( 'NONE',  ( 0.0000000000000000000, 0.0000000000000000000, 1.000000000000000000 ) ) ;
#62 = VECTOR ( 'NONE', #69, 39.37007874015748100 ) ;
#63 = CIRCLE ( 'NONE', #161, 0.09375000000000001400 ) ;
#64 = LINE ( 'NONE', #118, #62 ) ;
#65 = VERTEX_POINT ( 'NONE', #95 ) ;
#66 = CIRCLE ( 'NONE', #165, 0.09375000000000001400 ) ;
#67 = CIRCLE ( 'NONE', #167, 0.09375000000000001400 ) ;
#68 = CIRCLE ( 'NONE', #170, 0.09375000000000001400 ) ;
#69 = DIRECTION ( 'NONE',  ( -0.0000000000000000000, -1.000000000000000000, -0.0000000000000000000 ) ) ;
#70 = VECTOR ( 'NONE', #122, 39.37007874015748100 ) ;
#71 = VERTEX_POINT ( 'NONE', #6 ) ;
#72 = DIRECTION ( 'NONE',  ( 0.0000000000000000000, 0.0000000000000000000, 1.000000000000000000 ) ) ;
#73 = DIRECTION ( 'NONE',  ( 0.0000000000000000000, 1.000000000000000000, 0.0000000000000000000 ) ) ;
#74 = CIRCLE ( 'NONE', #168, 0.1250000000000000000 ) ;
#75 = CIRCLE ( 'NONE', #172, 0.1250000000000000000 ) ;
#76 = CARTESIAN_POINT ( 'NONE',  ( 0.0000000000000000000, 0.0000000000000000000, 0.0000000000000000000 ) ) ;
#77 = DIRECTION ( 'NONE',  ( 0.0000000000000000000, 0.0000000000000000000, 1.000000000000000000 ) ) ;
#78 = FACE_OUTER_BOUND ( 'NONE', #171, .T. ) ;
#79 = VECTOR ( 'NONE', #129, 39.37007874015748100 ) ;
#80 = DIRECTION ( 'NONE',  ( 0.0000000000000000000, 1.000000000000000000, 0.0000000000000000000 ) ) ;
#81 = CARTESIAN_POINT ( 'NONE',  ( 0.0000000000000000000, 0.2500000000000000000, 0.0000000000000000000 ) ) ;
#82 = LINE ( 'NONE', #121, #70 ) ;
#83 = VECTOR ( 'NONE', #138, 39.37007874015748100 ) ;
#84 = DIRECTION ( 'NONE',  ( 0.0000000000000000000, 0.0000000000000000000, 1.000000000000000000 ) ) ;
#85 = CYLINDRICAL_SURFACE ( 'NONE', #174, 0.1250000000000000000 ) ;
#86 = LINE ( 'NONE', #130, #79 ) ;
#87 = CYLINDRICAL_SURFACE ( 'NONE', #176, 0.1250000000000000000 ) ;
#88 = ORIENTED_EDGE ( 'NONE', *, *, #214, .F. ) ;
#89 = PRODUCT_DEFINITION_CONTEXT ( 'detailed design', #15, 'design' ) ;
#90 = ADVANCED_BREP_SHAPE_REPRESENTATION ( 'am-2334 3-16'''''''' id, 0.25'''''''' Long Bushing', ( #113, #152 ), #160 ) ;
#91 = LINE ( 'NONE', #146, #83 ) ;
#92 = DIMENSIONAL_EXPONENTS ( 1.000000000000000000, 0.0000000000000000000, 0.0000000000000000000, 0.0000000000000000000, 0.0000000000000000000, 0.0000000000000000000, 0.0000000000000000000 ) ;
#93 = CYLINDRICAL_SURFACE ( 'NONE', #178, 0.09375000000000001400 ) ;
#94 = DIRECTION ( 'NONE',  ( 0.0000000000000000000, 1.000000000000000000, 0.0000000000000000000 ) ) ;
#95 = CARTESIAN_POINT ( 'NONE',  ( 0.0000000000000000000, 0.0000000000000000000, -0.1250000000000000000 ) ) ;
#96 = CARTESIAN_POINT ( 'NONE',  ( 0.0000000000000000000, 0.2500000000000000000, 0.0000000000000000000 ) ) ;
#97 = FACE_OUTER_BOUND ( 'NONE', #53, .T. ) ;
#98 = ORIENTED_EDGE ( 'NONE', *, *, #204, .T. ) ;
#99 = CYLINDRICAL_SURFACE ( 'NONE', #179, 0.09375000000000001400 ) ;
#100 = CIRCLE ( 'NONE', #180, 0.1250000000000000000 ) ;
#101 = ORIENTED_EDGE ( 'NONE', *, *, #207, .T. ) ;
#102 = DIRECTION ( 'NONE',  ( 0.0000000000000000000, 0.0000000000000000000, 1.000000000000000000 ) ) ;
#103 = DIRECTION ( 'NONE',  ( 0.0000000000000000000, 1.000000000000000000, 0.0000000000000000000 ) ) ;
#104 = FACE_OUTER_BOUND ( 'NONE', #59, .T. ) ;
#105 = CARTESIAN_POINT ( 'NONE',  ( 0.0000000000000000000, 0.0000000000000000000, 0.0000000000000000000 ) ) ;
#106 = CARTESIAN_POINT ( 'NONE',  ( 1.530808498934191500E-017, 0.0000000000000000000, 0.1250000000000000000 ) ) ;
#107 = ORIENTED_EDGE ( 'NONE', *, *, #205, .T. ) ;
#108 = DIMENSIONAL_EXPONENTS ( 1.000000000000000000, 0.0000000000000000000, 0.0000000000000000000, 0.0000000000000000000, 0.0000000000000000000, 0.0000000000000000000, 0.0000000000000000000 ) ;
#109 = DIMENSIONAL_EXPONENTS ( 1.000000000000000000, 0.0000000000000000000, 0.0000000000000000000, 0.0000000000000000000, 0.0000000000000000000, 0.0000000000000000000, 0.0000000000000000000 ) ;
#110 = ADVANCED_FACE ( 'NONE', ( #132, #159 ), #47, .T. ) ;
#111 = CLOSED_SHELL ( 'NONE', ( #114, #117, #110, #112, #119, #116 ) ) ;
#112 = ADVANCED_FACE ( 'NONE', ( #211, #126 ), #11, .F. ) ;
#113 = MANIFOLD_SOLID_BREP ( 'Boss-Extrude1', #111 ) ;
#114 = ADVANCED_FACE ( 'NONE', ( #78 ), #99, .F. ) ;
#115 = VERTEX_POINT ( 'NONE', #220 ) ;
#116 = ADVANCED_FACE ( 'NONE', ( #97 ), #93, .F. ) ;
#117 = ADVANCED_FACE ( 'NONE', ( #210 ), #87, .T. ) ;
#118 = CARTESIAN_POINT ( 'NONE',  ( 0.0000000000000000000, 0.2500000000000000000, -0.09375000000000001400 ) ) ;
#119 = ADVANCED_FACE ( 'NONE', ( #104 ), #85, .T. ) ;
#120 = EDGE_LOOP ( 'NONE', ( #147, #203 ) ) ;
#121 = CARTESIAN_POINT ( 'NONE',  ( 0.0000000000000000000, 0.2500000000000000000, -0.1250000000000000000 ) ) ;
#122 = DIRECTION ( 'NONE',  ( -0.0000000000000000000, -1.000000000000000000, -0.0000000000000000000 ) ) ;
#123 = PRODUCT ( 'am-2334 3-16'''''''' id, 0.25'''''''' Long Bushing', 'am-2334 3-16'''''''' id, 0.25'''''''' Long Bushing', '', ( #18 ) ) ;
#124 = DIRECTION ( 'NONE',  ( 0.0000000000000000000, 1.000000000000000000, 0.0000000000000000000 ) ) ;
#125 = CARTESIAN_POINT ( 'NONE',  ( 0.0000000000000000000, 0.2500000000000000000, 0.0000000000000000000 ) ) ;
#126 = FACE_BOUND ( 'NONE', #221, .T. ) ;
#127 = DIRECTION ( 'NONE',  ( 0.0000000000000000000, 0.0000000000000000000, 1.000000000000000000 ) ) ;
#128 = ORIENTED_EDGE ( 'NONE', *, *, #209, .T. ) ;
#129 = DIRECTION ( 'NONE',  ( -0.0000000000000000000, -1.000000000000000000, -0.0000000000000000000 ) ) ;
#130 = CARTESIAN_POINT ( 'NONE',  ( 1.530808498934191500E-017, 0.2500000000000000000, 0.1250000000000000000 ) ) ;
#131 = CIRCLE ( 'NONE', #181, 0.1250000000000000000 ) ;
#132 = FACE_OUTER_BOUND ( 'NONE', #120, .T. ) ;
#133 = ORIENTED_EDGE ( 'NONE', *, *, #213, .T. ) ;
#134 = LENGTH_MEASURE_WITH_UNIT ( LENGTH_MEASURE( 0.02539999999999999900 ), #177 );
#135 = VERTEX_POINT ( 'NONE', #142 ) ;
#136 = SURFACE_STYLE_FILL_AREA ( #10 ) ;
#137 = ORIENTED_EDGE ( 'NONE', *, *, #199, .F. ) ;
#138 = DIRECTION ( 'NONE',  ( -0.0000000000000000000, -1.000000000000000000, -0.0000000000000000000 ) ) ;
#139 = ORIENTED_EDGE ( 'NONE', *, *, #214, .T. ) ;
#140 = CARTESIAN_POINT ( 'NONE',  ( 1.148106374200643900E-017, 0.0000000000000000000, 0.09375000000000001400 ) ) ;
#141 = PRESENTATION_STYLE_ASSIGNMENT (( #8 ) ) ;
#142 = CARTESIAN_POINT ( 'NONE',  ( 0.0000000000000000000, 0.2500000000000000000, -0.1250000000000000000 ) ) ;
#143 = DIRECTION ( 'NONE',  ( 0.0000000000000000000, 1.000000000000000000, 0.0000000000000000000 ) ) ;
#144 = ORIENTED_EDGE ( 'NONE', *, *, #215, .T. ) ;
#145 = ORIENTED_EDGE ( 'NONE', *, *, #213, .F. ) ;
#146 = CARTESIAN_POINT ( 'NONE',  ( 1.148106374200643900E-017, 0.2500000000000000000, 0.09375000000000001400 ) ) ;
#147 = ORIENTED_EDGE ( 'NONE', *, *, #206, .T. ) ;
#148 = PRODUCT_RELATED_PRODUCT_CATEGORY ( 'part', '', ( #123 ) ) ;
#149 = ORIENTED_EDGE ( 'NONE', *, *, #215, .F. ) ;
#150 = PRODUCT_DEFINITION_FORMATION_WITH_SPECIFIED_SOURCE ( 'ANY', '', #123, .NOT_KNOWN. ) ;
#151 = PRODUCT_DEFINITION ( 'UNKNOWN', '', #150, #89 ) ;
#152 = AXIS2_PLACEMENT_3D ( 'NONE', #49, #20, #19 ) ;
#153 = EDGE_LOOP ( 'NONE', ( #201, #208 ) ) ;
#154 = ORIENTED_EDGE ( 'NONE', *, *, #212, .T. ) ;
#155 =( GEOMETRIC_REPRESENTATION_CONTEXT ( 3 ) GLOBAL_UNCERTAINTY_ASSIGNED_CONTEXT ( ( #182 ) ) GLOBAL_UNIT_ASSIGNED_CONTEXT ( ( #25, #24, #22 ) ) REPRESENTATION_CONTEXT ( 'NONE', 'WORKASPACE' ) );
#156 = MECHANICAL_DESIGN_GEOMETRIC_PRESENTATION_REPRESENTATION (  '', ( #158 ), #155 ) ;
#157 = PRESENTATION_LAYER_ASSIGNMENT (  '', '', ( #158 ) ) ;
#158 = STYLED_ITEM ( 'NONE', ( #36 ), #90 ) ;
#159 = FACE_BOUND ( 'NONE', #166, .T. ) ;
#160 =( GEOMETRIC_REPRESENTATION_CONTEXT ( 3 ) GLOBAL_UNCERTAINTY_ASSIGNED_CONTEXT ( ( #162 ) ) GLOBAL_UNIT_ASSIGNED_CONTEXT ( ( #41, #40, #39 ) ) REPRESENTATION_CONTEXT ( 'NONE', 'WORKASPACE' ) );
#161 = AXIS2_PLACEMENT_3D ( 'NONE', #46, #44, #43 ) ;
#162 = UNCERTAINTY_MEASURE_WITH_UNIT (LENGTH_MEASURE( 1.000000000000000100E-005 ), #41, 'distance_accuracy_value', 'NONE');
#163 = ORIENTED_EDGE ( 'NONE', *, *, #207, .F. ) ;
#164 = EDGE_LOOP ( 'NONE', ( #217, #185, #98, #216 ) ) ;
#165 = AXIS2_PLACEMENT_3D ( 'NONE', #57, #55, #54 ) ;
#166 = EDGE_LOOP ( 'NONE', ( #149, #163 ) ) ;
#167 = AXIS2_PLACEMENT_3D ( 'NONE', #60, #58, #61 ) ;
#168 = AXIS2_PLACEMENT_3D ( 'NONE', #76, #73, #72 ) ;
#169 = CARTESIAN_POINT ( 'NONE',  ( 1.148106374200643900E-017, 0.2500000000000000000, 0.09375000000000001400 ) ) ;
#170 = AXIS2_PLACEMENT_3D ( 'NONE', #81, #80, #77 ) ;
#171 = EDGE_LOOP ( 'NONE', ( #144, #183, #145, #88 ) ) ;
#172 = AXIS2_PLACEMENT_3D ( 'NONE', #96, #94, #84 ) ;
#173 = ORIENTED_EDGE ( 'NONE', *, *, #206, .F. ) ;
#174 = AXIS2_PLACEMENT_3D ( 'NONE', #186, #175, #193 ) ;
#175 = DIRECTION ( 'NONE',  ( -0.0000000000000000000, -1.000000000000000000, -0.0000000000000000000 ) ) ;
#176 = AXIS2_PLACEMENT_3D ( 'NONE', #198, #196, #218 ) ;
#177 =( LENGTH_UNIT ( ) NAMED_UNIT ( * ) SI_UNIT ( $, .METRE. ) );
#178 = AXIS2_PLACEMENT_3D ( 'NONE', #223, #219, #13 ) ;
#179 = AXIS2_PLACEMENT_3D ( 'NONE', #1, #3, #197 ) ;
#180 = AXIS2_PLACEMENT_3D ( 'NONE', #105, #103, #102 ) ;
#181 = AXIS2_PLACEMENT_3D ( 'NONE', #125, #124, #127 ) ;
#182 = UNCERTAINTY_MEASURE_WITH_UNIT (LENGTH_MEASURE( 1.000000000000000100E-005 ), #25, 'distance_accuracy_value', 'NONE');
#183 = ORIENTED_EDGE ( 'NONE', *, *, #199, .T. ) ;
#184 =( GEOMETRIC_REPRESENTATION_CONTEXT ( 3 ) GLOBAL_UNCERTAINTY_ASSIGNED_CONTEXT ( ( #35 ) ) GLOBAL_UNIT_ASSIGNED_CONTEXT ( ( #7, #5, #4 ) ) REPRESENTATION_CONTEXT ( 'NONE', 'WORKASPACE' ) );
#185 = ORIENTED_EDGE ( 'NONE', *, *, #202, .T. ) ;
#186 = CARTESIAN_POINT ( 'NONE',  ( 0.0000000000000000000, 0.2500000000000000000, 0.0000000000000000000 ) ) ;
#187 = VERTEX_POINT ( 'NONE', #169 ) ;
#188 = MECHANICAL_DESIGN_GEOMETRIC_PRESENTATION_REPRESENTATION (  '', ( #192 ), #184 ) ;
#189 = PRESENTATION_LAYER_ASSIGNMENT (  '', '', ( #192 ) ) ;
#190 = DIRECTION ( 'NONE',  ( 0.0000000000000000000, -0.0000000000000000000, 1.000000000000000000 ) ) ;
#191 = AXIS2_PLACEMENT_3D ( 'NONE', #17, #143, #12 ) ;
#192 = STYLED_ITEM ( 'NONE', ( #141 ), #113 ) ;
#193 = DIRECTION ( 'NONE',  ( 0.0000000000000000000, 0.0000000000000000000, -1.000000000000000000 ) ) ;
#194 = AXIS2_PLACEMENT_3D ( 'NONE', #48, #23, #190 ) ;
#195 = COLOUR_RGB ( '',0.7803921568627451000, 0.7607843137254901600, 0.7411764705882353300 ) ;
#196 = DIRECTION ( 'NONE',  ( -0.0000000000000000000, -1.000000000000000000, -0.0000000000000000000 ) ) ;
#197 = DIRECTION ( 'NONE',  ( 0.0000000000000000000, 0.0000000000000000000, -1.000000000000000000 ) ) ;
#198 = CARTESIAN_POINT ( 'NONE',  ( 0.0000000000000000000, 0.2500000000000000000, 0.0000000000000000000 ) ) ;
#199 = EDGE_CURVE ( 'NONE', #187, #56, #91, .T. ) ;
#200 = EDGE_CURVE ( 'NONE', #115, #135, #131, .T. ) ;
#201 = ORIENTED_EDGE ( 'NONE', *, *, #209, .F. ) ;
#202 = EDGE_CURVE ( 'NONE', #115, #51, #86, .T. ) ;
#203 = ORIENTED_EDGE ( 'NONE', *, *, #200, .T. ) ;
#204 = EDGE_CURVE ( 'NONE', #51, #65, #100, .T. ) ;
#205 = EDGE_CURVE ( 'NONE', #135, #65, #82, .T. ) ;
#206 = EDGE_CURVE ( 'NONE', #135, #115, #75, .T. ) ;
#207 = EDGE_CURVE ( 'NONE', #187, #32, #68, .T. ) ;
#208 = ORIENTED_EDGE ( 'NONE', *, *, #204, .F. ) ;
#209 = EDGE_CURVE ( 'NONE', #65, #51, #74, .T. ) ;
#210 = FACE_OUTER_BOUND ( 'NONE', #164, .T. ) ;
#211 = FACE_OUTER_BOUND ( 'NONE', #153, .T. ) ;
#212 = EDGE_CURVE ( 'NONE', #56, #71, #67, .T. ) ;
#213 = EDGE_CURVE ( 'NONE', #71, #56, #66, .T. ) ;
#214 = EDGE_CURVE ( 'NONE', #32, #71, #64, .T. ) ;
#215 = EDGE_CURVE ( 'NONE', #32, #187, #63, .T. ) ;
#216 = ORIENTED_EDGE ( 'NONE', *, *, #205, .F. ) ;
#217 = ORIENTED_EDGE ( 'NONE', *, *, #200, .F. ) ;
#218 = DIRECTION ( 'NONE',  ( 0.0000000000000000000, 0.0000000000000000000, -1.000000000000000000 ) ) ;
#219 = DIRECTION ( 'NONE',  ( -0.0000000000000000000, -1.000000000000000000, -0.0000000000000000000 ) ) ;
#220 = CARTESIAN_POINT ( 'NONE',  ( 1.530808498934191500E-017, 0.2500000000000000000, 0.1250000000000000000 ) ) ;
#221 = EDGE_LOOP ( 'NONE', ( #133, #154 ) ) ;
#222 = ORIENTED_EDGE ( 'NONE', *, *, #202, .F. ) ;
#223 = CARTESIAN_POINT ( 'NONE',  ( 0.0000000000000000000, 0.2500000000000000000, 0.0000000000000000000 ) ) ;
ENDSEC;
END-ISO-10303-21;
