ISO-10303-21;
HEADER;
FILE_DESCRIPTION (( 'STEP AP214' ),
    '1' );
FILE_NAME ('am-2447 470x680x2420 Spacer REV2.STEP',
    '2018-07-11T22:09:24',
    ( '' ),
    ( '' ),
    'SwSTEP 2.0',
    'SolidWorks 2018',
    '' );
FILE_SCHEMA (( 'AUTOMOTIVE_DESIGN' ));
ENDSEC;

DATA;
#1 = CIRCLE ( 'NONE', #72, 0.3375000000000000222 ) ;
#2 = FILL_AREA_STYLE ('',( #192 ) ) ;
#3 = CIRCLE ( 'NONE', #101, 0.3375000000000000222 ) ;
#4 = UNCERTAINTY_MEASURE_WITH_UNIT (LENGTH_MEASURE( 1.000000000000000082E-05 ), #159, 'distance_accuracy_value', 'NONE');
#5 = DIRECTION ( 'NONE',  ( 0.0000000000000000000, 0.0000000000000000000, -1.000000000000000000 ) ) ;
#6 = PLANE ( 'NONE',  #184 ) ;
#7 = COLOUR_RGB ( '',1.000000000000000000, 1.000000000000000000, 0.0000000000000000000 ) ;
#8 = DIRECTION ( 'NONE',  ( 1.000000000000000000, 0.0000000000000000000, 0.0000000000000000000 ) ) ;
#9 = DIRECTION ( 'NONE',  ( -1.000000000000000000, -0.0000000000000000000, -0.0000000000000000000 ) ) ;
#10 = PRESENTATION_LAYER_ASSIGNMENT (  '', '', ( #32 ) ) ;
#11 = DIRECTION ( 'NONE',  ( 0.0000000000000000000, 0.0000000000000000000, 1.000000000000000000 ) ) ;
#12 = CIRCLE ( 'NONE', #59, 0.2364999999999999880 ) ;
#13 =( NAMED_UNIT ( * ) PLANE_ANGLE_UNIT ( ) SI_UNIT ( $, .RADIAN. ) );
#14 = EDGE_CURVE ( 'NONE', #30, #158, #113, .T. ) ;
#15 = MANIFOLD_SOLID_BREP ( 'Boss-Extrude1', #115 ) ;
#16 = PRESENTATION_STYLE_ASSIGNMENT (( #210 ) ) ;
#17 = AXIS2_PLACEMENT_3D ( 'NONE', #116, #201, #218 ) ;
#18 = ORIENTED_EDGE ( 'NONE', *, *, #118, .F. ) ;
#19 = DIMENSIONAL_EXPONENTS ( 1.000000000000000000, 0.0000000000000000000, 0.0000000000000000000, 0.0000000000000000000, 0.0000000000000000000, 0.0000000000000000000, 0.0000000000000000000 ) ;
#20 = VERTEX_POINT ( 'NONE', #21 ) ;
#21 = CARTESIAN_POINT ( 'NONE',  ( 0.0000000000000000000, 4.133182947122317783E-17, -0.3375000000000000222 ) ) ;
#22 = AXIS2_PLACEMENT_3D ( 'NONE', #39, #77, #91 ) ;
#23 = SURFACE_STYLE_FILL_AREA ( #2 ) ;
#24 = ORIENTED_EDGE ( 'NONE', *, *, #84, .F. ) ;
#25 = VERTEX_POINT ( 'NONE', #102 ) ;
#26 = CARTESIAN_POINT ( 'NONE',  ( 2.419999999999999929, 0.0000000000000000000, 0.0000000000000000000 ) ) ;
#27 = AXIS2_PLACEMENT_3D ( 'NONE', #147, #187, #127 ) ;
#28 = CARTESIAN_POINT ( 'NONE',  ( 0.0000000000000000000, 0.0000000000000000000, 0.0000000000000000000 ) ) ;
#29 = EDGE_CURVE ( 'NONE', #63, #73, #103, .T. ) ;
#30 = VERTEX_POINT ( 'NONE', #121 ) ;
#31 = CIRCLE ( 'NONE', #131, 0.3375000000000000222 ) ;
#32 = STYLED_ITEM ( 'NONE', ( #16 ), #15 ) ;
#33 =( NAMED_UNIT ( * ) PLANE_ANGLE_UNIT ( ) SI_UNIT ( $, .RADIAN. ) );
#34 = CARTESIAN_POINT ( 'NONE',  ( 2.419999999999999929, 4.133182947122317783E-17, -0.3375000000000000222 ) ) ;
#35 = ORIENTED_EDGE ( 'NONE', *, *, #172, .F. ) ;
#36 = DIRECTION ( 'NONE',  ( 0.0000000000000000000, 0.0000000000000000000, -1.000000000000000000 ) ) ;
#37 = ORIENTED_EDGE ( 'NONE', *, *, #14, .F. ) ;
#38 = DIRECTION ( 'NONE',  ( -1.000000000000000000, -0.0000000000000000000, -0.0000000000000000000 ) ) ;
#39 = CARTESIAN_POINT ( 'NONE',  ( 0.0000000000000000000, 0.0000000000000000000, 0.0000000000000000000 ) ) ;
#40 = CARTESIAN_POINT ( 'NONE',  ( 2.419999999999999929, 0.0000000000000000000, 0.0000000000000000000 ) ) ;
#41 = PRODUCT_CONTEXT ( 'NONE', #205, 'mechanical' ) ;
#42 = DIRECTION ( 'NONE',  ( 0.0000000000000000000, 0.0000000000000000000, -1.000000000000000000 ) ) ;
#43 = FACE_BOUND ( 'NONE', #206, .T. ) ;
#44 =( NAMED_UNIT ( * ) PLANE_ANGLE_UNIT ( ) SI_UNIT ( $, .RADIAN. ) );
#45 =( LENGTH_UNIT ( ) NAMED_UNIT ( * ) SI_UNIT ( $, .METRE. ) );
#46 = AXIS2_PLACEMENT_3D ( 'NONE', #188, #149, #144 ) ;
#47 = PRODUCT_DEFINITION_CONTEXT ( 'detailed design', #216, 'design' ) ;
#48 = EDGE_CURVE ( 'NONE', #94, #63, #12, .T. ) ;
#49 = EDGE_CURVE ( 'NONE', #25, #20, #191, .T. ) ;
#50 = FACE_OUTER_BOUND ( 'NONE', #208, .T. ) ;
#51 = ORIENTED_EDGE ( 'NONE', *, *, #80, .T. ) ;
#52 = DIRECTION ( 'NONE',  ( 1.000000000000000000, 0.0000000000000000000, 0.0000000000000000000 ) ) ;
#53 = EDGE_CURVE ( 'NONE', #73, #95, #112, .T. ) ;
#54 = ORIENTED_EDGE ( 'NONE', *, *, #53, .T. ) ;
#55 = CARTESIAN_POINT ( 'NONE',  ( 0.0000000000000000000, 0.0000000000000000000, 0.2364999999999999880 ) ) ;
#56 = DIRECTION ( 'NONE',  ( 0.0000000000000000000, 0.0000000000000000000, -1.000000000000000000 ) ) ;
#57 = CIRCLE ( 'NONE', #22, 0.2364999999999999880 ) ;
#58 = ORIENTED_EDGE ( 'NONE', *, *, #84, .T. ) ;
#59 = AXIS2_PLACEMENT_3D ( 'NONE', #26, #181, #139 ) ;
#60 = DIRECTION ( 'NONE',  ( 0.0000000000000000000, 0.0000000000000000000, -1.000000000000000000 ) ) ;
#61 =( LENGTH_UNIT ( ) NAMED_UNIT ( * ) SI_UNIT ( $, .METRE. ) );
#62 = APPLICATION_PROTOCOL_DEFINITION ( 'draft international standard', 'automotive_design', 1998, #205 ) ;
#63 = VERTEX_POINT ( 'NONE', #110 ) ;
#64 = PRODUCT_DEFINITION_FORMATION_WITH_SPECIFIED_SOURCE ( 'ANY', '', #202, .NOT_KNOWN. ) ;
#65 = EDGE_LOOP ( 'NONE', ( #98, #24, #128, #51 ) ) ;
#66 = LENGTH_MEASURE_WITH_UNIT ( LENGTH_MEASURE( 0.02539999999999999897 ), #133 );
#67 = DIMENSIONAL_EXPONENTS ( 1.000000000000000000, 0.0000000000000000000, 0.0000000000000000000, 0.0000000000000000000, 0.0000000000000000000, 0.0000000000000000000, 0.0000000000000000000 ) ;
#68 = EDGE_LOOP ( 'NONE', ( #182, #18 ) ) ;
#69 = COLOUR_RGB ( '',1.000000000000000000, 1.000000000000000000, 0.0000000000000000000 ) ;
#70 = DIRECTION ( 'NONE',  ( -1.000000000000000000, -0.0000000000000000000, -0.0000000000000000000 ) ) ;
#71 = ORIENTED_EDGE ( 'NONE', *, *, #172, .T. ) ;
#72 = AXIS2_PLACEMENT_3D ( 'NONE', #111, #8, #196 ) ;
#73 = VERTEX_POINT ( 'NONE', #107 ) ;
#74 = DIRECTION ( 'NONE',  ( 1.000000000000000000, 0.0000000000000000000, 0.0000000000000000000 ) ) ;
#75 = CYLINDRICAL_SURFACE ( 'NONE', #173, 0.3375000000000000222 ) ;
#76 = CARTESIAN_POINT ( 'NONE',  ( 2.419999999999999929, 0.0000000000000000000, 0.0000000000000000000 ) ) ;
#77 = DIRECTION ( 'NONE',  ( 1.000000000000000000, 0.0000000000000000000, 0.0000000000000000000 ) ) ;
#78 = DIRECTION ( 'NONE',  ( 0.0000000000000000000, 0.0000000000000000000, -1.000000000000000000 ) ) ;
#79 = PRESENTATION_STYLE_ASSIGNMENT (( #167 ) ) ;
#80 = EDGE_CURVE ( 'NONE', #158, #20, #31, .T. ) ;
#81 = CARTESIAN_POINT ( 'NONE',  ( 2.419999999999999929, 0.0000000000000000000, 0.0000000000000000000 ) ) ;
#82 = ORIENTED_EDGE ( 'NONE', *, *, #80, .F. ) ;
#83 =( CONVERSION_BASED_UNIT ( 'INCH', #165 ) LENGTH_UNIT ( ) NAMED_UNIT ( #219 ) );
#84 = EDGE_CURVE ( 'NONE', #30, #25, #1, .T. ) ;
#85 = LENGTH_MEASURE_WITH_UNIT ( LENGTH_MEASURE( 0.02539999999999999897 ), #45 );
#86 = SURFACE_SIDE_STYLE ('',( #23 ) ) ;
#87 = MECHANICAL_DESIGN_GEOMETRIC_PRESENTATION_REPRESENTATION (  '', ( #32 ), #207 ) ;
#88 = FACE_BOUND ( 'NONE', #68, .T. ) ;
#89 = FACE_OUTER_BOUND ( 'NONE', #221, .T. ) ;
#90 = PRODUCT_RELATED_PRODUCT_CATEGORY ( 'part', '', ( #202 ) ) ;
#91 = DIRECTION ( 'NONE',  ( 0.0000000000000000000, 0.0000000000000000000, -1.000000000000000000 ) ) ;
#92 = CARTESIAN_POINT ( 'NONE',  ( 2.419999999999999929, 0.0000000000000000000, 0.0000000000000000000 ) ) ;
#93 = AXIS2_PLACEMENT_3D ( 'NONE', #28, #212, #78 ) ;
#94 = VERTEX_POINT ( 'NONE', #180 ) ;
#95 = VERTEX_POINT ( 'NONE', #55 ) ;
#96 = VECTOR ( 'NONE', #9, 39.37007874015748143 ) ;
#97 = LINE ( 'NONE', #123, #96 ) ;
#98 = ORIENTED_EDGE ( 'NONE', *, *, #49, .F. ) ;
#99 = SHAPE_DEFINITION_REPRESENTATION ( #136, #193 ) ;
#100 = EDGE_LOOP ( 'NONE', ( #82, #35 ) ) ;
#101 = AXIS2_PLACEMENT_3D ( 'NONE', #169, #185, #60 ) ;
#102 = CARTESIAN_POINT ( 'NONE',  ( 2.419999999999999929, 4.133182947122317783E-17, -0.3375000000000000222 ) ) ;
#103 = LINE ( 'NONE', #120, #194 ) ;
#104 =( NAMED_UNIT ( * ) SI_UNIT ( $, .STERADIAN. ) SOLID_ANGLE_UNIT ( ) );
#105 = EDGE_CURVE ( 'NONE', #94, #95, #97, .T. ) ;
#106 = UNCERTAINTY_MEASURE_WITH_UNIT (LENGTH_MEASURE( 1.000000000000000082E-05 ), #189, 'distance_accuracy_value', 'NONE');
#107 = CARTESIAN_POINT ( 'NONE',  ( 0.0000000000000000000, 2.896289679983490085E-17, -0.2364999999999999880 ) ) ;
#108 = PLANE ( 'NONE',  #126 ) ;
#109 = ORIENTED_EDGE ( 'NONE', *, *, #29, .F. ) ;
#110 = CARTESIAN_POINT ( 'NONE',  ( 2.419999999999999929, 2.896289679983490085E-17, -0.2364999999999999880 ) ) ;
#111 = CARTESIAN_POINT ( 'NONE',  ( 2.419999999999999929, 0.0000000000000000000, 0.0000000000000000000 ) ) ;
#112 = CIRCLE ( 'NONE', #93, 0.2364999999999999880 ) ;
#113 = LINE ( 'NONE', #175, #179 ) ;
#114 = FILL_AREA_STYLE ('',( #171 ) ) ;
#115 = CLOSED_SHELL ( 'NONE', ( #155, #209, #154, #157, #223, #220 ) ) ;
#116 = CARTESIAN_POINT ( 'NONE',  ( 2.419999999999999929, 0.0000000000000000000, 0.0000000000000000000 ) ) ;
#117 = ORIENTED_EDGE ( 'NONE', *, *, #53, .F. ) ;
#118 = EDGE_CURVE ( 'NONE', #63, #94, #146, .T. ) ;
#119 = PRESENTATION_LAYER_ASSIGNMENT (  '', '', ( #195 ) ) ;
#120 = CARTESIAN_POINT ( 'NONE',  ( 2.419999999999999929, 2.896289679983490085E-17, -0.2364999999999999880 ) ) ;
#121 = CARTESIAN_POINT ( 'NONE',  ( 2.419999999999999929, 0.0000000000000000000, 0.3375000000000000222 ) ) ;
#122 = DIRECTION ( 'NONE',  ( 0.0000000000000000000, 0.0000000000000000000, 1.000000000000000000 ) ) ;
#123 = CARTESIAN_POINT ( 'NONE',  ( 2.419999999999999929, 0.0000000000000000000, 0.2364999999999999880 ) ) ;
#124 =( NAMED_UNIT ( * ) SI_UNIT ( $, .STERADIAN. ) SOLID_ANGLE_UNIT ( ) );
#125 = SURFACE_SIDE_STYLE ('',( #145 ) ) ;
#126 = AXIS2_PLACEMENT_3D ( 'NONE', #40, #74, #56 ) ;
#127 = DIRECTION ( 'NONE',  ( 0.0000000000000000000, 0.0000000000000000000, 1.000000000000000000 ) ) ;
#128 = ORIENTED_EDGE ( 'NONE', *, *, #14, .T. ) ;
#129 = APPLICATION_PROTOCOL_DEFINITION ( 'draft international standard', 'automotive_design', 1998, #216 ) ;
#130 =( GEOMETRIC_REPRESENTATION_CONTEXT ( 3 ) GLOBAL_UNCERTAINTY_ASSIGNED_CONTEXT ( ( #177 ) ) GLOBAL_UNIT_ASSIGNED_CONTEXT ( ( #83, #13, #124 ) ) REPRESENTATION_CONTEXT ( 'NONE', 'WORKASPACE' ) );
#131 = AXIS2_PLACEMENT_3D ( 'NONE', #211, #52, #5 ) ;
#132 = CIRCLE ( 'NONE', #156, 0.3375000000000000222 ) ;
#133 =( LENGTH_UNIT ( ) NAMED_UNIT ( * ) SI_UNIT ( $, .METRE. ) );
#134 = ORIENTED_EDGE ( 'NONE', *, *, #48, .T. ) ;
#135 = VECTOR ( 'NONE', #38, 39.37007874015748143 ) ;
#136 = PRODUCT_DEFINITION_SHAPE ( 'NONE', 'NONE',  #164 ) ;
#137 = AXIS2_PLACEMENT_3D ( 'NONE', #92, #198, #122 ) ;
#138 = DIRECTION ( 'NONE',  ( 1.000000000000000000, 0.0000000000000000000, 0.0000000000000000000 ) ) ;
#139 = DIRECTION ( 'NONE',  ( 0.0000000000000000000, 0.0000000000000000000, -1.000000000000000000 ) ) ;
#140 =( GEOMETRIC_REPRESENTATION_CONTEXT ( 3 ) GLOBAL_UNCERTAINTY_ASSIGNED_CONTEXT ( ( #106 ) ) GLOBAL_UNIT_ASSIGNED_CONTEXT ( ( #189, #44, #203 ) ) REPRESENTATION_CONTEXT ( 'NONE', 'WORKASPACE' ) );
#141 = CYLINDRICAL_SURFACE ( 'NONE', #27, 0.2364999999999999880 ) ;
#142 = DIRECTION ( 'NONE',  ( 1.000000000000000000, 0.0000000000000000000, 0.0000000000000000000 ) ) ;
#143 = CARTESIAN_POINT ( 'NONE',  ( 0.0000000000000000000, 0.0000000000000000000, 0.3375000000000000222 ) ) ;
#144 = DIRECTION ( 'NONE',  ( 1.000000000000000000, 0.0000000000000000000, 0.0000000000000000000 ) ) ;
#145 = SURFACE_STYLE_FILL_AREA ( #114 ) ;
#146 = CIRCLE ( 'NONE', #215, 0.2364999999999999880 ) ;
#147 = CARTESIAN_POINT ( 'NONE',  ( 2.419999999999999929, 0.0000000000000000000, 0.0000000000000000000 ) ) ;
#148 = ORIENTED_EDGE ( 'NONE', *, *, #105, .T. ) ;
#149 = DIRECTION ( 'NONE',  ( 0.0000000000000000000, 0.0000000000000000000, 1.000000000000000000 ) ) ;
#150 = DIRECTION ( 'NONE',  ( -1.000000000000000000, -0.0000000000000000000, -0.0000000000000000000 ) ) ;
#151 = FACE_OUTER_BOUND ( 'NONE', #170, .T. ) ;
#152 = ORIENTED_EDGE ( 'NONE', *, *, #153, .F. ) ;
#153 = EDGE_CURVE ( 'NONE', #95, #73, #57, .T. ) ;
#154 = ADVANCED_FACE ( 'NONE', ( #200, #88 ), #108, .T. ) ;
#155 = ADVANCED_FACE ( 'NONE', ( #50 ), #222, .F. ) ;
#156 = AXIS2_PLACEMENT_3D ( 'NONE', #166, #214, #42 ) ;
#157 = ADVANCED_FACE ( 'NONE', ( #186, #43 ), #6, .F. ) ;
#158 = VERTEX_POINT ( 'NONE', #143 ) ;
#159 =( CONVERSION_BASED_UNIT ( 'INCH', #66 ) LENGTH_UNIT ( ) NAMED_UNIT ( #67 ) );
#160 = ORIENTED_EDGE ( 'NONE', *, *, #153, .T. ) ;
#161 = ORIENTED_EDGE ( 'NONE', *, *, #199, .F. ) ;
#162 = FACE_OUTER_BOUND ( 'NONE', #65, .T. ) ;
#163 = ORIENTED_EDGE ( 'NONE', *, *, #29, .T. ) ;
#164 = PRODUCT_DEFINITION ( 'UNKNOWN', '', #64, #47 ) ;
#165 = LENGTH_MEASURE_WITH_UNIT ( LENGTH_MEASURE( 0.02539999999999999897 ), #61 );
#166 = CARTESIAN_POINT ( 'NONE',  ( 0.0000000000000000000, 0.0000000000000000000, 0.0000000000000000000 ) ) ;
#167 = SURFACE_STYLE_USAGE ( .BOTH. , #125 ) ;
#168 = MECHANICAL_DESIGN_GEOMETRIC_PRESENTATION_REPRESENTATION (  '', ( #195 ), #130 ) ;
#169 = CARTESIAN_POINT ( 'NONE',  ( 2.419999999999999929, 0.0000000000000000000, 0.0000000000000000000 ) ) ;
#170 = EDGE_LOOP ( 'NONE', ( #109, #197, #148, #117 ) ) ;
#171 = FILL_AREA_STYLE_COLOUR ( '', #7 ) ;
#172 = EDGE_CURVE ( 'NONE', #20, #158, #132, .T. ) ;
#173 = AXIS2_PLACEMENT_3D ( 'NONE', #81, #150, #11 ) ;
#174 = EDGE_LOOP ( 'NONE', ( #58, #204 ) ) ;
#175 = CARTESIAN_POINT ( 'NONE',  ( 2.419999999999999929, 0.0000000000000000000, 0.3375000000000000222 ) ) ;
#176 = CYLINDRICAL_SURFACE ( 'NONE', #17, 0.3375000000000000222 ) ;
#177 = UNCERTAINTY_MEASURE_WITH_UNIT (LENGTH_MEASURE( 1.000000000000000082E-05 ), #83, 'distance_accuracy_value', 'NONE');
#178 = DIRECTION ( 'NONE',  ( -1.000000000000000000, -0.0000000000000000000, -0.0000000000000000000 ) ) ;
#179 = VECTOR ( 'NONE', #70, 39.37007874015748143 ) ;
#180 = CARTESIAN_POINT ( 'NONE',  ( 2.419999999999999929, 0.0000000000000000000, 0.2364999999999999880 ) ) ;
#181 = DIRECTION ( 'NONE',  ( 1.000000000000000000, 0.0000000000000000000, 0.0000000000000000000 ) ) ;
#182 = ORIENTED_EDGE ( 'NONE', *, *, #48, .F. ) ;
#183 = DIRECTION ( 'NONE',  ( 0.0000000000000000000, 0.0000000000000000000, -1.000000000000000000 ) ) ;
#184 = AXIS2_PLACEMENT_3D ( 'NONE', #213, #138, #36 ) ;
#185 = DIRECTION ( 'NONE',  ( 1.000000000000000000, 0.0000000000000000000, 0.0000000000000000000 ) ) ;
#186 = FACE_OUTER_BOUND ( 'NONE', #100, .T. ) ;
#187 = DIRECTION ( 'NONE',  ( -1.000000000000000000, -0.0000000000000000000, -0.0000000000000000000 ) ) ;
#188 = CARTESIAN_POINT ( 'NONE',  ( 0.0000000000000000000, 0.0000000000000000000, 0.0000000000000000000 ) ) ;
#189 =( CONVERSION_BASED_UNIT ( 'INCH', #85 ) LENGTH_UNIT ( ) NAMED_UNIT ( #19 ) );
#190 = ORIENTED_EDGE ( 'NONE', *, *, #105, .F. ) ;
#191 = LINE ( 'NONE', #34, #135 ) ;
#192 = FILL_AREA_STYLE_COLOUR ( '', #69 ) ;
#193 = ADVANCED_BREP_SHAPE_REPRESENTATION ( 'am-2447 470x680x2420 Spacer REV2', ( #15, #46 ), #140 ) ;
#194 = VECTOR ( 'NONE', #178, 39.37007874015748143 ) ;
#195 = STYLED_ITEM ( 'NONE', ( #79 ), #193 ) ;
#196 = DIRECTION ( 'NONE',  ( 0.0000000000000000000, 0.0000000000000000000, -1.000000000000000000 ) ) ;
#197 = ORIENTED_EDGE ( 'NONE', *, *, #118, .T. ) ;
#198 = DIRECTION ( 'NONE',  ( -1.000000000000000000, -0.0000000000000000000, -0.0000000000000000000 ) ) ;
#199 = EDGE_CURVE ( 'NONE', #25, #30, #3, .T. ) ;
#200 = FACE_OUTER_BOUND ( 'NONE', #174, .T. ) ;
#201 = DIRECTION ( 'NONE',  ( -1.000000000000000000, -0.0000000000000000000, -0.0000000000000000000 ) ) ;
#202 = PRODUCT ( 'am-2447 470x680x2420 Spacer REV2', 'am-2447 470x680x2420 Spacer REV2', '', ( #41 ) ) ;
#203 =( NAMED_UNIT ( * ) SI_UNIT ( $, .STERADIAN. ) SOLID_ANGLE_UNIT ( ) );
#204 = ORIENTED_EDGE ( 'NONE', *, *, #199, .T. ) ;
#205 = APPLICATION_CONTEXT ( 'automotive_design' ) ;
#206 = EDGE_LOOP ( 'NONE', ( #160, #54 ) ) ;
#207 =( GEOMETRIC_REPRESENTATION_CONTEXT ( 3 ) GLOBAL_UNCERTAINTY_ASSIGNED_CONTEXT ( ( #4 ) ) GLOBAL_UNIT_ASSIGNED_CONTEXT ( ( #159, #33, #104 ) ) REPRESENTATION_CONTEXT ( 'NONE', 'WORKASPACE' ) );
#208 = EDGE_LOOP ( 'NONE', ( #134, #163, #152, #190 ) ) ;
#209 = ADVANCED_FACE ( 'NONE', ( #89 ), #75, .T. ) ;
#210 = SURFACE_STYLE_USAGE ( .BOTH. , #86 ) ;
#211 = CARTESIAN_POINT ( 'NONE',  ( 0.0000000000000000000, 0.0000000000000000000, 0.0000000000000000000 ) ) ;
#212 = DIRECTION ( 'NONE',  ( 1.000000000000000000, 0.0000000000000000000, 0.0000000000000000000 ) ) ;
#213 = CARTESIAN_POINT ( 'NONE',  ( 0.0000000000000000000, 0.0000000000000000000, 0.0000000000000000000 ) ) ;
#214 = DIRECTION ( 'NONE',  ( 1.000000000000000000, 0.0000000000000000000, 0.0000000000000000000 ) ) ;
#215 = AXIS2_PLACEMENT_3D ( 'NONE', #76, #142, #183 ) ;
#216 = APPLICATION_CONTEXT ( 'automotive_design' ) ;
#217 = ORIENTED_EDGE ( 'NONE', *, *, #49, .T. ) ;
#218 = DIRECTION ( 'NONE',  ( 0.0000000000000000000, 0.0000000000000000000, 1.000000000000000000 ) ) ;
#219 = DIMENSIONAL_EXPONENTS ( 1.000000000000000000, 0.0000000000000000000, 0.0000000000000000000, 0.0000000000000000000, 0.0000000000000000000, 0.0000000000000000000, 0.0000000000000000000 ) ;
#220 = ADVANCED_FACE ( 'NONE', ( #151 ), #141, .F. ) ;
#221 = EDGE_LOOP ( 'NONE', ( #161, #217, #71, #37 ) ) ;
#222 = CYLINDRICAL_SURFACE ( 'NONE', #137, 0.2364999999999999880 ) ;
#223 = ADVANCED_FACE ( 'NONE', ( #162 ), #176, .T. ) ;
ENDSEC;
END-ISO-10303-21;
