ISO-10303-21;
HEADER;
FILE_DESCRIPTION (( 'STEP AP214' ),
    '1' );
FILE_NAME ('am-2919 0.21ID x 0.31OD x 0.62L Aluminum Spacer.STEP',
    '2019-04-16T17:51:04',
    ( '' ),
    ( '' ),
    'SwSTEP 2.0',
    'SolidWorks 2018',
    '' );
FILE_SCHEMA (( 'AUTOMOTIVE_DESIGN' ));
ENDSEC;

DATA;
#1 = EDGE_CURVE ( 'NONE', #101, #101, #73, .T. ) ;
#2 = ORIENTED_EDGE ( 'NONE', *, *, #19, .T. ) ;
#3 = CARTESIAN_POINT ( 'NONE',  ( 0.0000000000000000000, 0.0000000000000000000, 0.0000000000000000000 ) ) ;
#4 = PRODUCT_DEFINITION_CONTEXT ( 'detailed design', #106, 'design' ) ;
#5 =( GEOMETRIC_REPRESENTATION_CONTEXT ( 3 ) GLOBAL_UNCERTAINTY_ASSIGNED_CONTEXT ( ( #124 ) ) GLOBAL_UNIT_ASSIGNED_CONTEXT ( ( #104, #128, #21 ) ) REPRESENTATION_CONTEXT ( 'NONE', 'WORKASPACE' ) );
#6 = SURFACE_STYLE_FILL_AREA ( #87 ) ;
#7 = LENGTH_MEASURE_WITH_UNIT ( LENGTH_MEASURE( 0.02539999999999999897 ), #47 );
#8 = DIMENSIONAL_EXPONENTS ( 1.000000000000000000, 0.0000000000000000000, 0.0000000000000000000, 0.0000000000000000000, 0.0000000000000000000, 0.0000000000000000000, 0.0000000000000000000 ) ;
#9 = MECHANICAL_DESIGN_GEOMETRIC_PRESENTATION_REPRESENTATION (  '', ( #69 ), #23 ) ;
#10 = CARTESIAN_POINT ( 'NONE',  ( 0.0000000000000000000, 0.0000000000000000000, 0.1562500000000000000 ) ) ;
#11 = EDGE_CURVE ( 'NONE', #59, #59, #115, .T. ) ;
#12 = PLANE ( 'NONE',  #58 ) ;
#13 =( NAMED_UNIT ( * ) SI_UNIT ( $, .STERADIAN. ) SOLID_ANGLE_UNIT ( ) );
#14 = VERTEX_POINT ( 'NONE', #25 ) ;
#15 = ORIENTED_EDGE ( 'NONE', *, *, #1, .F. ) ;
#16 = PRODUCT ( 'am-2919 0.21ID x 0.31OD x 0.62L Aluminum Spacer', 'am-2919 0.21ID x 0.31OD x 0.62L Aluminum Spacer', '', ( #64 ) ) ;
#17 = DIRECTION ( 'NONE',  ( 0.0000000000000000000, 0.0000000000000000000, 1.000000000000000000 ) ) ;
#18 = PRODUCT_RELATED_PRODUCT_CATEGORY ( 'part', '', ( #16 ) ) ;
#19 = EDGE_CURVE ( 'NONE', #93, #93, #56, .T. ) ;
#20 = CARTESIAN_POINT ( 'NONE',  ( 0.0000000000000000000, 0.0000000000000000000, 0.1049999999999999684 ) ) ;
#21 =( NAMED_UNIT ( * ) SI_UNIT ( $, .STERADIAN. ) SOLID_ANGLE_UNIT ( ) );
#22 = EDGE_LOOP ( 'NONE', ( #32 ) ) ;
#23 =( GEOMETRIC_REPRESENTATION_CONTEXT ( 3 ) GLOBAL_UNCERTAINTY_ASSIGNED_CONTEXT ( ( #137 ) ) GLOBAL_UNIT_ASSIGNED_CONTEXT ( ( #120, #102, #131 ) ) REPRESENTATION_CONTEXT ( 'NONE', 'WORKASPACE' ) );
#24 = COLOUR_RGB ( '',0.8980392156862745390, 0.9176470588235293713, 0.9294117647058823817 ) ;
#25 = CARTESIAN_POINT ( 'NONE',  ( 0.0000000000000000000, 0.6250000000000000000, 0.1049999999999999684 ) ) ;
#26 = EDGE_CURVE ( 'NONE', #14, #14, #46, .T. ) ;
#27 = LENGTH_MEASURE_WITH_UNIT ( LENGTH_MEASURE( 0.02539999999999999897 ), #43 );
#28 = EDGE_LOOP ( 'NONE', ( #94 ) ) ;
#29 = FACE_OUTER_BOUND ( 'NONE', #28, .T. ) ;
#30 =( CONVERSION_BASED_UNIT ( 'INCH', #103 ) LENGTH_UNIT ( ) NAMED_UNIT ( #74 ) );
#31 = SURFACE_SIDE_STYLE ('',( #91 ) ) ;
#32 = ORIENTED_EDGE ( 'NONE', *, *, #26, .F. ) ;
#33 = FILL_AREA_STYLE_COLOUR ( '', #51 ) ;
#34 = EDGE_LOOP ( 'NONE', ( #2 ) ) ;
#35 = FACE_OUTER_BOUND ( 'NONE', #114, .T. ) ;
#36 = DIRECTION ( 'NONE',  ( 0.0000000000000000000, 1.000000000000000000, 0.0000000000000000000 ) ) ;
#37 = DIRECTION ( 'NONE',  ( 1.000000000000000000, 0.0000000000000000000, 0.0000000000000000000 ) ) ;
#38 = DIRECTION ( 'NONE',  ( 0.0000000000000000000, 1.000000000000000000, 0.0000000000000000000 ) ) ;
#39 = DIRECTION ( 'NONE',  ( -0.0000000000000000000, -1.000000000000000000, -0.0000000000000000000 ) ) ;
#40 = ORIENTED_EDGE ( 'NONE', *, *, #11, .T. ) ;
#41 = PRESENTATION_LAYER_ASSIGNMENT (  '', '', ( #69 ) ) ;
#42 = CARTESIAN_POINT ( 'NONE',  ( 0.0000000000000000000, 0.6250000000000000000, 0.0000000000000000000 ) ) ;
#43 =( LENGTH_UNIT ( ) NAMED_UNIT ( * ) SI_UNIT ( $, .METRE. ) );
#44 = FILL_AREA_STYLE ('',( #67 ) ) ;
#45 = PRODUCT_DEFINITION ( 'UNKNOWN', '', #54, #4 ) ;
#46 = CIRCLE ( 'NONE', #126, 0.1049999999999999684 ) ;
#47 =( LENGTH_UNIT ( ) NAMED_UNIT ( * ) SI_UNIT ( $, .METRE. ) );
#48 = ADVANCED_FACE ( 'NONE', ( #57, #85 ), #12, .T. ) ;
#49 = DIRECTION ( 'NONE',  ( 0.0000000000000000000, 0.0000000000000000000, -1.000000000000000000 ) ) ;
#50 = DIRECTION ( 'NONE',  ( 0.0000000000000000000, 0.0000000000000000000, 1.000000000000000000 ) ) ;
#51 = COLOUR_RGB ( '',0.8980392156862745390, 0.9176470588235293713, 0.9294117647058823817 ) ;
#52 = ADVANCED_BREP_SHAPE_REPRESENTATION ( 'am-2919 0.21ID x 0.31OD x 0.62L Aluminum Spacer', ( #99, #70 ), #116 ) ;
#53 = DIRECTION ( 'NONE',  ( 0.0000000000000000000, 1.000000000000000000, 0.0000000000000000000 ) ) ;
#54 = PRODUCT_DEFINITION_FORMATION_WITH_SPECIFIED_SOURCE ( 'ANY', '', #16, .NOT_KNOWN. ) ;
#55 = DIRECTION ( 'NONE',  ( 0.0000000000000000000, 1.000000000000000000, 0.0000000000000000000 ) ) ;
#56 = CIRCLE ( 'NONE', #125, 0.1049999999999999684 ) ;
#57 = FACE_OUTER_BOUND ( 'NONE', #82, .T. ) ;
#58 = AXIS2_PLACEMENT_3D ( 'NONE', #42, #38, #86 ) ;
#59 = VERTEX_POINT ( 'NONE', #88 ) ;
#60 = DIRECTION ( 'NONE',  ( 0.0000000000000000000, 1.000000000000000000, 0.0000000000000000000 ) ) ;
#61 = APPLICATION_PROTOCOL_DEFINITION ( 'draft international standard', 'automotive_design', 1998, #106 ) ;
#62 = SHAPE_DEFINITION_REPRESENTATION ( #119, #52 ) ;
#63 = DIRECTION ( 'NONE',  ( 0.0000000000000000000, 1.000000000000000000, 0.0000000000000000000 ) ) ;
#64 = PRODUCT_CONTEXT ( 'NONE', #81, 'mechanical' ) ;
#65 = PRESENTATION_STYLE_ASSIGNMENT (( #84 ) ) ;
#66 = AXIS2_PLACEMENT_3D ( 'NONE', #3, #36, #76 ) ;
#67 = FILL_AREA_STYLE_COLOUR ( '', #24 ) ;
#68 = EDGE_LOOP ( 'NONE', ( #109 ) ) ;
#69 = STYLED_ITEM ( 'NONE', ( #65 ), #52 ) ;
#70 = AXIS2_PLACEMENT_3D ( 'NONE', #107, #83, #37 ) ;
#71 = STYLED_ITEM ( 'NONE', ( #75 ), #99 ) ;
#72 = DIMENSIONAL_EXPONENTS ( 1.000000000000000000, 0.0000000000000000000, 0.0000000000000000000, 0.0000000000000000000, 0.0000000000000000000, 0.0000000000000000000, 0.0000000000000000000 ) ;
#73 = CIRCLE ( 'NONE', #134, 0.1562500000000000000 ) ;
#74 = DIMENSIONAL_EXPONENTS ( 1.000000000000000000, 0.0000000000000000000, 0.0000000000000000000, 0.0000000000000000000, 0.0000000000000000000, 0.0000000000000000000, 0.0000000000000000000 ) ;
#75 = PRESENTATION_STYLE_ASSIGNMENT (( #96 ) ) ;
#76 = DIRECTION ( 'NONE',  ( 0.0000000000000000000, -0.0000000000000000000, 1.000000000000000000 ) ) ;
#77 = CARTESIAN_POINT ( 'NONE',  ( 0.0000000000000000000, 0.6250000000000000000, 0.0000000000000000000 ) ) ;
#78 = DIRECTION ( 'NONE',  ( 0.0000000000000000000, 0.0000000000000000000, -1.000000000000000000 ) ) ;
#79 = FACE_BOUND ( 'NONE', #34, .T. ) ;
#80 = UNCERTAINTY_MEASURE_WITH_UNIT (LENGTH_MEASURE( 1.000000000000000082E-05 ), #30, 'distance_accuracy_value', 'NONE');
#81 = APPLICATION_CONTEXT ( 'automotive_design' ) ;
#82 = EDGE_LOOP ( 'NONE', ( #40 ) ) ;
#83 = DIRECTION ( 'NONE',  ( 0.0000000000000000000, 0.0000000000000000000, 1.000000000000000000 ) ) ;
#84 = SURFACE_STYLE_USAGE ( .BOTH. , #100 ) ;
#85 = FACE_BOUND ( 'NONE', #22, .T. ) ;
#86 = DIRECTION ( 'NONE',  ( 0.0000000000000000000, -0.0000000000000000000, 1.000000000000000000 ) ) ;
#87 = FILL_AREA_STYLE ('',( #33 ) ) ;
#88 = CARTESIAN_POINT ( 'NONE',  ( 0.0000000000000000000, 0.6250000000000000000, 0.1562500000000000000 ) ) ;
#89 = EDGE_LOOP ( 'NONE', ( #140 ) ) ;
#90 = CARTESIAN_POINT ( 'NONE',  ( 0.0000000000000000000, 0.6250000000000000000, 0.0000000000000000000 ) ) ;
#91 = SURFACE_STYLE_FILL_AREA ( #44 ) ;
#92 = DIRECTION ( 'NONE',  ( 0.0000000000000000000, 0.0000000000000000000, 1.000000000000000000 ) ) ;
#93 = VERTEX_POINT ( 'NONE', #20 ) ;
#94 = ORIENTED_EDGE ( 'NONE', *, *, #11, .F. ) ;
#95 = CYLINDRICAL_SURFACE ( 'NONE', #132, 0.1562500000000000000 ) ;
#96 = SURFACE_STYLE_USAGE ( .BOTH. , #31 ) ;
#97 = FACE_OUTER_BOUND ( 'NONE', #135, .T. ) ;
#98 =( NAMED_UNIT ( * ) PLANE_ANGLE_UNIT ( ) SI_UNIT ( $, .RADIAN. ) );
#99 = MANIFOLD_SOLID_BREP ( 'Boss-Extrude1', #118 ) ;
#100 = SURFACE_SIDE_STYLE ('',( #6 ) ) ;
#101 = VERTEX_POINT ( 'NONE', #10 ) ;
#102 =( NAMED_UNIT ( * ) PLANE_ANGLE_UNIT ( ) SI_UNIT ( $, .RADIAN. ) );
#103 = LENGTH_MEASURE_WITH_UNIT ( LENGTH_MEASURE( 0.02539999999999999897 ), #108 );
#104 =( CONVERSION_BASED_UNIT ( 'INCH', #27 ) LENGTH_UNIT ( ) NAMED_UNIT ( #8 ) );
#105 = ORIENTED_EDGE ( 'NONE', *, *, #19, .F. ) ;
#106 = APPLICATION_CONTEXT ( 'automotive_design' ) ;
#107 = CARTESIAN_POINT ( 'NONE',  ( 0.0000000000000000000, 0.0000000000000000000, 0.0000000000000000000 ) ) ;
#108 =( LENGTH_UNIT ( ) NAMED_UNIT ( * ) SI_UNIT ( $, .METRE. ) );
#109 = ORIENTED_EDGE ( 'NONE', *, *, #1, .T. ) ;
#110 = AXIS2_PLACEMENT_3D ( 'NONE', #90, #139, #78 ) ;
#111 = CARTESIAN_POINT ( 'NONE',  ( 0.0000000000000000000, 0.6250000000000000000, 0.0000000000000000000 ) ) ;
#112 = FACE_OUTER_BOUND ( 'NONE', #68, .T. ) ;
#113 = PRESENTATION_LAYER_ASSIGNMENT (  '', '', ( #71 ) ) ;
#114 = EDGE_LOOP ( 'NONE', ( #15 ) ) ;
#115 = CIRCLE ( 'NONE', #127, 0.1562500000000000000 ) ;
#116 =( GEOMETRIC_REPRESENTATION_CONTEXT ( 3 ) GLOBAL_UNCERTAINTY_ASSIGNED_CONTEXT ( ( #80 ) ) GLOBAL_UNIT_ASSIGNED_CONTEXT ( ( #30, #98, #13 ) ) REPRESENTATION_CONTEXT ( 'NONE', 'WORKASPACE' ) );
#117 = ADVANCED_FACE ( 'NONE', ( #29, #112 ), #95, .T. ) ;
#118 = CLOSED_SHELL ( 'NONE', ( #48, #121, #117, #133 ) ) ;
#119 = PRODUCT_DEFINITION_SHAPE ( 'NONE', 'NONE',  #45 ) ;
#120 =( CONVERSION_BASED_UNIT ( 'INCH', #7 ) LENGTH_UNIT ( ) NAMED_UNIT ( #72 ) );
#121 = ADVANCED_FACE ( 'NONE', ( #35, #79 ), #122, .F. ) ;
#122 = PLANE ( 'NONE',  #66 ) ;
#123 = CYLINDRICAL_SURFACE ( 'NONE', #110, 0.1049999999999999684 ) ;
#124 = UNCERTAINTY_MEASURE_WITH_UNIT (LENGTH_MEASURE( 1.000000000000000082E-05 ), #104, 'distance_accuracy_value', 'NONE');
#125 = AXIS2_PLACEMENT_3D ( 'NONE', #143, #63, #50 ) ;
#126 = AXIS2_PLACEMENT_3D ( 'NONE', #111, #55, #92 ) ;
#127 = AXIS2_PLACEMENT_3D ( 'NONE', #77, #60, #17 ) ;
#128 =( NAMED_UNIT ( * ) PLANE_ANGLE_UNIT ( ) SI_UNIT ( $, .RADIAN. ) );
#129 = APPLICATION_PROTOCOL_DEFINITION ( 'draft international standard', 'automotive_design', 1998, #81 ) ;
#130 = CARTESIAN_POINT ( 'NONE',  ( 0.0000000000000000000, 0.0000000000000000000, 0.0000000000000000000 ) ) ;
#131 =( NAMED_UNIT ( * ) SI_UNIT ( $, .STERADIAN. ) SOLID_ANGLE_UNIT ( ) );
#132 = AXIS2_PLACEMENT_3D ( 'NONE', #142, #39, #49 ) ;
#133 = ADVANCED_FACE ( 'NONE', ( #141, #97 ), #123, .F. ) ;
#134 = AXIS2_PLACEMENT_3D ( 'NONE', #130, #53, #138 ) ;
#135 = EDGE_LOOP ( 'NONE', ( #105 ) ) ;
#136 = MECHANICAL_DESIGN_GEOMETRIC_PRESENTATION_REPRESENTATION (  '', ( #71 ), #5 ) ;
#137 = UNCERTAINTY_MEASURE_WITH_UNIT (LENGTH_MEASURE( 1.000000000000000082E-05 ), #120, 'distance_accuracy_value', 'NONE');
#138 = DIRECTION ( 'NONE',  ( 0.0000000000000000000, 0.0000000000000000000, 1.000000000000000000 ) ) ;
#139 = DIRECTION ( 'NONE',  ( -0.0000000000000000000, -1.000000000000000000, -0.0000000000000000000 ) ) ;
#140 = ORIENTED_EDGE ( 'NONE', *, *, #26, .T. ) ;
#141 = FACE_OUTER_BOUND ( 'NONE', #89, .T. ) ;
#142 = CARTESIAN_POINT ( 'NONE',  ( 0.0000000000000000000, 0.6250000000000000000, 0.0000000000000000000 ) ) ;
#143 = CARTESIAN_POINT ( 'NONE',  ( 0.0000000000000000000, 0.0000000000000000000, 0.0000000000000000000 ) ) ;
ENDSEC;
END-ISO-10303-21;
