ISO-10303-21;
HEADER;
FILE_DESCRIPTION (( 'STEP AP214' ),
    '1' );
FILE_NAME ('am-4050 LR20 - End Bar.STEP',
    '2019-05-07T19:24:22',
    ( '' ),
    ( '' ),
    'SwSTEP 2.0',
    'SolidWorks 2019',
    '' );
FILE_SCHEMA (( 'AUTOMOTIVE_DESIGN' ));
ENDSEC;

DATA;
#1 = VECTOR ( 'NONE', #131, 39.37007874015748143 ) ;
#2 = DIRECTION ( 'NONE',  ( 0.0000000000000000000, 0.0000000000000000000, -1.000000000000000000 ) ) ;
#3 = VECTOR ( 'NONE', #202, 39.37007874015748143 ) ;
#4 = DIRECTION ( 'NONE',  ( -1.000000000000000000, -0.0000000000000000000, -0.0000000000000000000 ) ) ;
#5 = ORIENTED_EDGE ( 'NONE', *, *, #65, .T. ) ;
#6 = DIRECTION ( 'NONE',  ( 0.0000000000000000000, 0.0000000000000000000, -1.000000000000000000 ) ) ;
#7 = ORIENTED_EDGE ( 'NONE', *, *, #47, .T. ) ;
#8 = DIRECTION ( 'NONE',  ( 1.000000000000000000, 0.0000000000000000000, 0.0000000000000000000 ) ) ;
#9 = ADVANCED_FACE ( 'NONE', ( #16 ), #121, .F. ) ;
#10 = ADVANCED_BREP_SHAPE_REPRESENTATION ( 'am-4050 LR20 - End Bar', ( #19, #30 ), #191 ) ;
#11 = FACE_BOUND ( 'NONE', #172, .T. ) ;
#12 = PRODUCT_RELATED_PRODUCT_CATEGORY ( 'part', '', ( #127 ) ) ;
#13 = DIRECTION ( 'NONE',  ( -1.000000000000000000, -0.0000000000000000000, -0.0000000000000000000 ) ) ;
#14 = ORIENTED_EDGE ( 'NONE', *, *, #129, .T. ) ;
#15 = VERTEX_POINT ( 'NONE', #103 ) ;
#16 = FACE_OUTER_BOUND ( 'NONE', #27, .T. ) ;
#17 = PRODUCT_DEFINITION_CONTEXT ( 'detailed design', #90, 'design' ) ;
#18 = COLOUR_RGB ( '',0.9098039215686274384, 0.4431372549019607643, 0.03137254901960784270 ) ;
#19 = MANIFOLD_SOLID_BREP ( 'Boss-Extrude1', #162 ) ;
#20 = CARTESIAN_POINT ( 'NONE',  ( 0.0000000000000000000, 0.0000000000000000000, 0.0000000000000000000 ) ) ;
#21 = CYLINDRICAL_SURFACE ( 'NONE', #204, 0.4249999999999999889 ) ;
#22 = DIRECTION ( 'NONE',  ( -1.000000000000000000, -0.0000000000000000000, -0.0000000000000000000 ) ) ;
#23 = STYLED_ITEM ( 'NONE', ( #125 ), #10 ) ;
#24 = DIRECTION ( 'NONE',  ( 1.000000000000000000, 0.0000000000000000000, 0.0000000000000000000 ) ) ;
#25 = CIRCLE ( 'NONE', #223, 0.4249999999999999889 ) ;
#26 = DIRECTION ( 'NONE',  ( 0.0000000000000000000, 0.0000000000000000000, -1.000000000000000000 ) ) ;
#27 = EDGE_LOOP ( 'NONE', ( #138, #80, #98, #200 ) ) ;
#28 = FACE_BOUND ( 'NONE', #183, .T. ) ;
#29 =( CONVERSION_BASED_UNIT ( 'INCH', #101 ) LENGTH_UNIT ( ) NAMED_UNIT ( #39 ) );
#30 = AXIS2_PLACEMENT_3D ( 'NONE', #20, #208, #35 ) ;
#31 = CYLINDRICAL_SURFACE ( 'NONE', #109, 0.5250000000000000222 ) ;
#32 = ORIENTED_EDGE ( 'NONE', *, *, #140, .T. ) ;
#33 = PRESENTATION_STYLE_ASSIGNMENT (( #105 ) ) ;
#34 = EDGE_LOOP ( 'NONE', ( #133, #147 ) ) ;
#35 = DIRECTION ( 'NONE',  ( 1.000000000000000000, 0.0000000000000000000, 0.0000000000000000000 ) ) ;
#36 = AXIS2_PLACEMENT_3D ( 'NONE', #180, #111, #6 ) ;
#37 = ADVANCED_FACE ( 'NONE', ( #206 ), #31, .T. ) ;
#38 = DIRECTION ( 'NONE',  ( 0.0000000000000000000, 0.0000000000000000000, 1.000000000000000000 ) ) ;
#39 = DIMENSIONAL_EXPONENTS ( 1.000000000000000000, 0.0000000000000000000, 0.0000000000000000000, 0.0000000000000000000, 0.0000000000000000000, 0.0000000000000000000, 0.0000000000000000000 ) ;
#40 = EDGE_CURVE ( 'NONE', #149, #187, #116, .T. ) ;
#41 = LINE ( 'NONE', #197, #1 ) ;
#42 = CARTESIAN_POINT ( 'NONE',  ( 25.37500000000000000, 0.0000000000000000000, 0.0000000000000000000 ) ) ;
#43 = EDGE_LOOP ( 'NONE', ( #7, #139 ) ) ;
#44 = CARTESIAN_POINT ( 'NONE',  ( 25.37500000000000000, 6.429395695523603660E-17, -0.5250000000000000222 ) ) ;
#45 =( LENGTH_UNIT ( ) NAMED_UNIT ( * ) SI_UNIT ( $, .METRE. ) );
#46 =( NAMED_UNIT ( * ) PLANE_ANGLE_UNIT ( ) SI_UNIT ( $, .RADIAN. ) );
#47 = EDGE_CURVE ( 'NONE', #15, #149, #113, .T. ) ;
#48 = SURFACE_STYLE_FILL_AREA ( #119 ) ;
#49 = AXIS2_PLACEMENT_3D ( 'NONE', #165, #97, #26 ) ;
#50 =( LENGTH_UNIT ( ) NAMED_UNIT ( * ) SI_UNIT ( $, .METRE. ) );
#51 = EDGE_CURVE ( 'NONE', #187, #52, #174, .T. ) ;
#52 = VERTEX_POINT ( 'NONE', #135 ) ;
#53 = PRESENTATION_LAYER_ASSIGNMENT (  '', '', ( #23 ) ) ;
#54 =( GEOMETRIC_REPRESENTATION_CONTEXT ( 3 ) GLOBAL_UNCERTAINTY_ASSIGNED_CONTEXT ( ( #56 ) ) GLOBAL_UNIT_ASSIGNED_CONTEXT ( ( #100, #168, #74 ) ) REPRESENTATION_CONTEXT ( 'NONE', 'WORKASPACE' ) );
#55 = FILL_AREA_STYLE_COLOUR ( '', #124 ) ;
#56 = UNCERTAINTY_MEASURE_WITH_UNIT (LENGTH_MEASURE( 1.000000000000000082E-05 ), #100, 'distance_accuracy_value', 'NONE');
#57 = DIMENSIONAL_EXPONENTS ( 1.000000000000000000, 0.0000000000000000000, 0.0000000000000000000, 0.0000000000000000000, 0.0000000000000000000, 0.0000000000000000000, 0.0000000000000000000 ) ;
#58 = CARTESIAN_POINT ( 'NONE',  ( -25.37500000000000000, 6.429395695523603660E-17, -0.5250000000000000222 ) ) ;
#59 = DIRECTION ( 'NONE',  ( 1.000000000000000000, 0.0000000000000000000, 0.0000000000000000000 ) ) ;
#60 = ORIENTED_EDGE ( 'NONE', *, *, #86, .T. ) ;
#61 = DIRECTION ( 'NONE',  ( 1.000000000000000000, 0.0000000000000000000, 0.0000000000000000000 ) ) ;
#62 =( NAMED_UNIT ( * ) SI_UNIT ( $, .STERADIAN. ) SOLID_ANGLE_UNIT ( ) );
#63 = CARTESIAN_POINT ( 'NONE',  ( 25.37500000000000000, 0.0000000000000000000, 0.0000000000000000000 ) ) ;
#64 = DIRECTION ( 'NONE',  ( -1.000000000000000000, -0.0000000000000000000, -0.0000000000000000000 ) ) ;
#65 = EDGE_CURVE ( 'NONE', #220, #221, #25, .T. ) ;
#66 = EDGE_LOOP ( 'NONE', ( #153, #137, #214, #14 ) ) ;
#67 = ORIENTED_EDGE ( 'NONE', *, *, #126, .F. ) ;
#68 = PRESENTATION_LAYER_ASSIGNMENT (  '', '', ( #169 ) ) ;
#69 = ORIENTED_EDGE ( 'NONE', *, *, #71, .T. ) ;
#70 = ADVANCED_FACE ( 'NONE', ( #83, #11 ), #170, .F. ) ;
#71 = EDGE_CURVE ( 'NONE', #221, #85, #146, .T. ) ;
#72 = AXIS2_PLACEMENT_3D ( 'NONE', #134, #61, #215 ) ;
#73 = SURFACE_STYLE_USAGE ( .BOTH. , #210 ) ;
#74 =( NAMED_UNIT ( * ) SI_UNIT ( $, .STERADIAN. ) SOLID_ANGLE_UNIT ( ) );
#75 = EDGE_CURVE ( 'NONE', #221, #220, #160, .T. ) ;
#76 = VECTOR ( 'NONE', #22, 39.37007874015748143 ) ;
#77 = DIRECTION ( 'NONE',  ( 1.000000000000000000, 0.0000000000000000000, 0.0000000000000000000 ) ) ;
#78 = SHAPE_DEFINITION_REPRESENTATION ( #193, #10 ) ;
#79 = CARTESIAN_POINT ( 'NONE',  ( 25.37500000000000000, 0.0000000000000000000, 0.4249999999999999889 ) ) ;
#80 = ORIENTED_EDGE ( 'NONE', *, *, #182, .T. ) ;
#81 = DIRECTION ( 'NONE',  ( 1.000000000000000000, 0.0000000000000000000, 0.0000000000000000000 ) ) ;
#82 = CARTESIAN_POINT ( 'NONE',  ( -25.37500000000000000, 0.0000000000000000000, 0.0000000000000000000 ) ) ;
#83 = FACE_OUTER_BOUND ( 'NONE', #34, .T. ) ;
#84 = CARTESIAN_POINT ( 'NONE',  ( 25.37500000000000000, 0.0000000000000000000, 0.0000000000000000000 ) ) ;
#85 = VERTEX_POINT ( 'NONE', #150 ) ;
#86 = EDGE_CURVE ( 'NONE', #85, #166, #189, .T. ) ;
#87 = ORIENTED_EDGE ( 'NONE', *, *, #40, .T. ) ;
#88 = AXIS2_PLACEMENT_3D ( 'NONE', #42, #199, #159 ) ;
#89 = ORIENTED_EDGE ( 'NONE', *, *, #51, .T. ) ;
#90 = APPLICATION_CONTEXT ( 'automotive_design' ) ;
#91 = AXIS2_PLACEMENT_3D ( 'NONE', #164, #96, #216 ) ;
#92 = APPLICATION_PROTOCOL_DEFINITION ( 'draft international standard', 'automotive_design', 1998, #106 ) ;
#93 = FACE_OUTER_BOUND ( 'NONE', #156, .T. ) ;
#94 = DIMENSIONAL_EXPONENTS ( 1.000000000000000000, 0.0000000000000000000, 0.0000000000000000000, 0.0000000000000000000, 0.0000000000000000000, 0.0000000000000000000, 0.0000000000000000000 ) ;
#95 = CARTESIAN_POINT ( 'NONE',  ( 25.37500000000000000, 0.0000000000000000000, 0.5250000000000000222 ) ) ;
#96 = DIRECTION ( 'NONE',  ( 1.000000000000000000, 0.0000000000000000000, 0.0000000000000000000 ) ) ;
#97 = DIRECTION ( 'NONE',  ( 1.000000000000000000, 0.0000000000000000000, 0.0000000000000000000 ) ) ;
#98 = ORIENTED_EDGE ( 'NONE', *, *, #86, .F. ) ;
#99 = FACE_OUTER_BOUND ( 'NONE', #43, .T. ) ;
#100 =( CONVERSION_BASED_UNIT ( 'INCH', #117 ) LENGTH_UNIT ( ) NAMED_UNIT ( #94 ) );
#101 = LENGTH_MEASURE_WITH_UNIT ( LENGTH_MEASURE( 0.02539999999999999897 ), #50 );
#102 = AXIS2_PLACEMENT_3D ( 'NONE', #82, #8, #167 ) ;
#103 = CARTESIAN_POINT ( 'NONE',  ( 25.37500000000000000, 0.0000000000000000000, 0.5250000000000000222 ) ) ;
#104 = ORIENTED_EDGE ( 'NONE', *, *, #65, .F. ) ;
#105 = SURFACE_STYLE_USAGE ( .BOTH. , #173 ) ;
#106 = APPLICATION_CONTEXT ( 'automotive_design' ) ;
#107 = AXIS2_PLACEMENT_3D ( 'NONE', #132, #59, #213 ) ;
#108 = AXIS2_PLACEMENT_3D ( 'NONE', #128, #24, #181 ) ;
#109 = AXIS2_PLACEMENT_3D ( 'NONE', #136, #64, #218 ) ;
#110 = DIRECTION ( 'NONE',  ( -1.000000000000000000, -0.0000000000000000000, -0.0000000000000000000 ) ) ;
#111 = DIRECTION ( 'NONE',  ( 1.000000000000000000, 0.0000000000000000000, 0.0000000000000000000 ) ) ;
#112 = CARTESIAN_POINT ( 'NONE',  ( -25.37500000000000000, 5.204748896376250699E-17, -0.4249999999999999889 ) ) ;
#113 = CIRCLE ( 'NONE', #72, 0.5250000000000000222 ) ;
#114 = CYLINDRICAL_SURFACE ( 'NONE', #88, 0.5250000000000000222 ) ;
#115 = ORIENTED_EDGE ( 'NONE', *, *, #75, .F. ) ;
#116 = LINE ( 'NONE', #44, #3 ) ;
#117 = LENGTH_MEASURE_WITH_UNIT ( LENGTH_MEASURE( 0.02539999999999999897 ), #45 );
#118 = PRODUCT_DEFINITION_FORMATION_WITH_SPECIFIED_SOURCE ( 'ANY', '', #127, .NOT_KNOWN. ) ;
#119 = FILL_AREA_STYLE ('',( #190 ) ) ;
#120 = AXIS2_PLACEMENT_3D ( 'NONE', #84, #13, #171 ) ;
#121 = CYLINDRICAL_SURFACE ( 'NONE', #120, 0.4249999999999999889 ) ;
#122 = EDGE_LOOP ( 'NONE', ( #176, #87, #89, #67 ) ) ;
#123 = ADVANCED_FACE ( 'NONE', ( #99, #28 ), #188, .T. ) ;
#124 = COLOUR_RGB ( '',0.9098039215686274384, 0.4431372549019607643, 0.03137254901960784270 ) ;
#125 = PRESENTATION_STYLE_ASSIGNMENT (( #73 ) ) ;
#126 = EDGE_CURVE ( 'NONE', #15, #52, #161, .T. ) ;
#127 = PRODUCT ( 'am-4050 LR20 - End Bar', 'am-4050 LR20 - End Bar', '', ( #198 ) ) ;
#128 = CARTESIAN_POINT ( 'NONE',  ( 25.37500000000000000, 0.0000000000000000000, 0.0000000000000000000 ) ) ;
#129 = EDGE_CURVE ( 'NONE', #52, #187, #163, .T. ) ;
#130 =( NAMED_UNIT ( * ) PLANE_ANGLE_UNIT ( ) SI_UNIT ( $, .RADIAN. ) );
#131 = DIRECTION ( 'NONE',  ( -1.000000000000000000, -0.0000000000000000000, -0.0000000000000000000 ) ) ;
#132 = CARTESIAN_POINT ( 'NONE',  ( -25.37500000000000000, 0.0000000000000000000, 0.0000000000000000000 ) ) ;
#133 = ORIENTED_EDGE ( 'NONE', *, *, #129, .F. ) ;
#134 = CARTESIAN_POINT ( 'NONE',  ( 25.37500000000000000, 0.0000000000000000000, 0.0000000000000000000 ) ) ;
#135 = CARTESIAN_POINT ( 'NONE',  ( -25.37500000000000000, 0.0000000000000000000, 0.5250000000000000222 ) ) ;
#136 = CARTESIAN_POINT ( 'NONE',  ( 25.37500000000000000, 0.0000000000000000000, 0.0000000000000000000 ) ) ;
#137 = ORIENTED_EDGE ( 'NONE', *, *, #47, .F. ) ;
#138 = ORIENTED_EDGE ( 'NONE', *, *, #75, .T. ) ;
#139 = ORIENTED_EDGE ( 'NONE', *, *, #157, .T. ) ;
#140 = EDGE_CURVE ( 'NONE', #166, #85, #175, .T. ) ;
#141 =( CONVERSION_BASED_UNIT ( 'INCH', #209 ) LENGTH_UNIT ( ) NAMED_UNIT ( #57 ) );
#142 = ADVANCED_FACE ( 'NONE', ( #186 ), #114, .T. ) ;
#143 = ADVANCED_FACE ( 'NONE', ( #93 ), #21, .F. ) ;
#144 =( NAMED_UNIT ( * ) SI_UNIT ( $, .STERADIAN. ) SOLID_ANGLE_UNIT ( ) );
#145 = CARTESIAN_POINT ( 'NONE',  ( 25.37500000000000000, 0.0000000000000000000, 0.0000000000000000000 ) ) ;
#146 = LINE ( 'NONE', #79, #201 ) ;
#147 = ORIENTED_EDGE ( 'NONE', *, *, #51, .F. ) ;
#148 = CARTESIAN_POINT ( 'NONE',  ( -25.37500000000000000, 0.0000000000000000000, 0.0000000000000000000 ) ) ;
#149 = VERTEX_POINT ( 'NONE', #196 ) ;
#150 = CARTESIAN_POINT ( 'NONE',  ( -25.37500000000000000, 0.0000000000000000000, 0.4249999999999999889 ) ) ;
#151 = DIRECTION ( 'NONE',  ( 0.0000000000000000000, 0.0000000000000000000, -1.000000000000000000 ) ) ;
#152 = PRODUCT_DEFINITION ( 'UNKNOWN', '', #118, #17 ) ;
#153 = ORIENTED_EDGE ( 'NONE', *, *, #40, .F. ) ;
#154 = AXIS2_PLACEMENT_3D ( 'NONE', #148, #81, #203 ) ;
#155 = ORIENTED_EDGE ( 'NONE', *, *, #182, .F. ) ;
#156 = EDGE_LOOP ( 'NONE', ( #155, #5, #69, #207 ) ) ;
#157 = EDGE_CURVE ( 'NONE', #149, #15, #211, .T. ) ;
#158 = SURFACE_STYLE_FILL_AREA ( #178 ) ;
#159 = DIRECTION ( 'NONE',  ( 0.0000000000000000000, 0.0000000000000000000, 1.000000000000000000 ) ) ;
#160 = CIRCLE ( 'NONE', #91, 0.4249999999999999889 ) ;
#161 = LINE ( 'NONE', #95, #76 ) ;
#162 = CLOSED_SHELL ( 'NONE', ( #9, #37, #123, #70, #142, #143 ) ) ;
#163 = CIRCLE ( 'NONE', #36, 0.5250000000000000222 ) ;
#164 = CARTESIAN_POINT ( 'NONE',  ( 25.37500000000000000, 0.0000000000000000000, 0.0000000000000000000 ) ) ;
#165 = CARTESIAN_POINT ( 'NONE',  ( -25.37500000000000000, 0.0000000000000000000, 0.0000000000000000000 ) ) ;
#166 = VERTEX_POINT ( 'NONE', #112 ) ;
#167 = DIRECTION ( 'NONE',  ( 0.0000000000000000000, 0.0000000000000000000, -1.000000000000000000 ) ) ;
#168 =( NAMED_UNIT ( * ) PLANE_ANGLE_UNIT ( ) SI_UNIT ( $, .RADIAN. ) );
#169 = STYLED_ITEM ( 'NONE', ( #33 ), #19 ) ;
#170 = PLANE ( 'NONE',  #107 ) ;
#171 = DIRECTION ( 'NONE',  ( 0.0000000000000000000, 0.0000000000000000000, 1.000000000000000000 ) ) ;
#172 = EDGE_LOOP ( 'NONE', ( #60, #32 ) ) ;
#173 = SURFACE_SIDE_STYLE ('',( #48 ) ) ;
#174 = CIRCLE ( 'NONE', #154, 0.5250000000000000222 ) ;
#175 = CIRCLE ( 'NONE', #49, 0.4249999999999999889 ) ;
#176 = ORIENTED_EDGE ( 'NONE', *, *, #157, .F. ) ;
#177 = CARTESIAN_POINT ( 'NONE',  ( 25.37500000000000000, 0.0000000000000000000, 0.4249999999999999889 ) ) ;
#178 = FILL_AREA_STYLE ('',( #55 ) ) ;
#179 = CARTESIAN_POINT ( 'NONE',  ( 25.37500000000000000, 0.0000000000000000000, 0.0000000000000000000 ) ) ;
#180 = CARTESIAN_POINT ( 'NONE',  ( -25.37500000000000000, 0.0000000000000000000, 0.0000000000000000000 ) ) ;
#181 = DIRECTION ( 'NONE',  ( 0.0000000000000000000, 0.0000000000000000000, -1.000000000000000000 ) ) ;
#182 = EDGE_CURVE ( 'NONE', #220, #166, #41, .T. ) ;
#183 = EDGE_LOOP ( 'NONE', ( #115, #104 ) ) ;
#184 = MECHANICAL_DESIGN_GEOMETRIC_PRESENTATION_REPRESENTATION (  '', ( #23 ), #54 ) ;
#185 = UNCERTAINTY_MEASURE_WITH_UNIT (LENGTH_MEASURE( 1.000000000000000082E-05 ), #29, 'distance_accuracy_value', 'NONE');
#186 = FACE_OUTER_BOUND ( 'NONE', #66, .T. ) ;
#187 = VERTEX_POINT ( 'NONE', #58 ) ;
#188 = PLANE ( 'NONE',  #205 ) ;
#189 = CIRCLE ( 'NONE', #102, 0.4249999999999999889 ) ;
#190 = FILL_AREA_STYLE_COLOUR ( '', #18 ) ;
#191 =( GEOMETRIC_REPRESENTATION_CONTEXT ( 3 ) GLOBAL_UNCERTAINTY_ASSIGNED_CONTEXT ( ( #194 ) ) GLOBAL_UNIT_ASSIGNED_CONTEXT ( ( #141, #130, #144 ) ) REPRESENTATION_CONTEXT ( 'NONE', 'WORKASPACE' ) );
#192 =( LENGTH_UNIT ( ) NAMED_UNIT ( * ) SI_UNIT ( $, .METRE. ) );
#193 = PRODUCT_DEFINITION_SHAPE ( 'NONE', 'NONE',  #152 ) ;
#194 = UNCERTAINTY_MEASURE_WITH_UNIT (LENGTH_MEASURE( 1.000000000000000082E-05 ), #141, 'distance_accuracy_value', 'NONE');
#195 = MECHANICAL_DESIGN_GEOMETRIC_PRESENTATION_REPRESENTATION (  '', ( #169 ), #219 ) ;
#196 = CARTESIAN_POINT ( 'NONE',  ( 25.37500000000000000, 6.429395695523603660E-17, -0.5250000000000000222 ) ) ;
#197 = CARTESIAN_POINT ( 'NONE',  ( 25.37500000000000000, 5.204748896376250699E-17, -0.4249999999999999889 ) ) ;
#198 = PRODUCT_CONTEXT ( 'NONE', #106, 'mechanical' ) ;
#199 = DIRECTION ( 'NONE',  ( -1.000000000000000000, -0.0000000000000000000, -0.0000000000000000000 ) ) ;
#200 = ORIENTED_EDGE ( 'NONE', *, *, #71, .F. ) ;
#201 = VECTOR ( 'NONE', #4, 39.37007874015748143 ) ;
#202 = DIRECTION ( 'NONE',  ( -1.000000000000000000, -0.0000000000000000000, -0.0000000000000000000 ) ) ;
#203 = DIRECTION ( 'NONE',  ( 0.0000000000000000000, 0.0000000000000000000, -1.000000000000000000 ) ) ;
#204 = AXIS2_PLACEMENT_3D ( 'NONE', #179, #110, #38 ) ;
#205 = AXIS2_PLACEMENT_3D ( 'NONE', #145, #77, #2 ) ;
#206 = FACE_OUTER_BOUND ( 'NONE', #122, .T. ) ;
#207 = ORIENTED_EDGE ( 'NONE', *, *, #140, .F. ) ;
#208 = DIRECTION ( 'NONE',  ( 0.0000000000000000000, 0.0000000000000000000, 1.000000000000000000 ) ) ;
#209 = LENGTH_MEASURE_WITH_UNIT ( LENGTH_MEASURE( 0.02539999999999999897 ), #192 );
#210 = SURFACE_SIDE_STYLE ('',( #158 ) ) ;
#211 = CIRCLE ( 'NONE', #108, 0.5250000000000000222 ) ;
#212 = CARTESIAN_POINT ( 'NONE',  ( 25.37500000000000000, 5.204748896376250699E-17, -0.4249999999999999889 ) ) ;
#213 = DIRECTION ( 'NONE',  ( 0.0000000000000000000, 0.0000000000000000000, -1.000000000000000000 ) ) ;
#214 = ORIENTED_EDGE ( 'NONE', *, *, #126, .T. ) ;
#215 = DIRECTION ( 'NONE',  ( 0.0000000000000000000, 0.0000000000000000000, -1.000000000000000000 ) ) ;
#216 = DIRECTION ( 'NONE',  ( 0.0000000000000000000, 0.0000000000000000000, -1.000000000000000000 ) ) ;
#217 = DIRECTION ( 'NONE',  ( 1.000000000000000000, 0.0000000000000000000, 0.0000000000000000000 ) ) ;
#218 = DIRECTION ( 'NONE',  ( 0.0000000000000000000, 0.0000000000000000000, 1.000000000000000000 ) ) ;
#219 =( GEOMETRIC_REPRESENTATION_CONTEXT ( 3 ) GLOBAL_UNCERTAINTY_ASSIGNED_CONTEXT ( ( #185 ) ) GLOBAL_UNIT_ASSIGNED_CONTEXT ( ( #29, #46, #62 ) ) REPRESENTATION_CONTEXT ( 'NONE', 'WORKASPACE' ) );
#220 = VERTEX_POINT ( 'NONE', #212 ) ;
#221 = VERTEX_POINT ( 'NONE', #177 ) ;
#222 = APPLICATION_PROTOCOL_DEFINITION ( 'draft international standard', 'automotive_design', 1998, #90 ) ;
#223 = AXIS2_PLACEMENT_3D ( 'NONE', #63, #217, #151 ) ;
ENDSEC;
END-ISO-10303-21;
