ISO-10303-21;
HEADER;
FILE_DESCRIPTION (( 'STEP AP214' ),
    '1' );
FILE_NAME ('am-1530 6mmOD x 4mmID x 16mmt AL Spacer.STEP',
    '2019-09-18T15:44:45',
    ( '' ),
    ( '' ),
    'SwSTEP 2.0',
    'SolidWorks 2019',
    '' );
FILE_SCHEMA (( 'AUTOMOTIVE_DESIGN' ));
ENDSEC;

DATA;
#1 =( GEOMETRIC_REPRESENTATION_CONTEXT ( 3 ) GLOBAL_UNCERTAINTY_ASSIGNED_CONTEXT ( ( #213 ) ) GLOBAL_UNIT_ASSIGNED_CONTEXT ( ( #91, #209, #80 ) ) REPRESENTATION_CONTEXT ( 'NONE', 'WORKASPACE' ) );
#2 = AXIS2_PLACEMENT_3D ( 'NONE', #57, #201, #130 ) ;
#3 = SURFACE_STYLE_FILL_AREA ( #160 ) ;
#4 = CARTESIAN_POINT ( 'NONE',  ( 2.100000000000000089, 2.571758278209441957E-16, 8.000000000000000000 ) ) ;
#5 = EDGE_LOOP ( 'NONE', ( #198, #132 ) ) ;
#6 = ORIENTED_EDGE ( 'NONE', *, *, #114, .F. ) ;
#7 = VECTOR ( 'NONE', #176, 1000.000000000000000 ) ;
#8 = ORIENTED_EDGE ( 'NONE', *, *, #212, .T. ) ;
#9 = PRESENTATION_LAYER_ASSIGNMENT (  '', '', ( #55 ) ) ;
#10 =( GEOMETRIC_REPRESENTATION_CONTEXT ( 3 ) GLOBAL_UNCERTAINTY_ASSIGNED_CONTEXT ( ( #162 ) ) GLOBAL_UNIT_ASSIGNED_CONTEXT ( ( #30, #122, #77 ) ) REPRESENTATION_CONTEXT ( 'NONE', 'WORKASPACE' ) );
#11 = DIRECTION ( 'NONE',  ( 0.0000000000000000000, 0.0000000000000000000, 1.000000000000000000 ) ) ;
#12 =( NAMED_UNIT ( * ) SI_UNIT ( $, .STERADIAN. ) SOLID_ANGLE_UNIT ( ) );
#13 = ADVANCED_FACE ( 'NONE', ( #127 ), #139, .F. ) ;
#14 = ORIENTED_EDGE ( 'NONE', *, *, #178, .F. ) ;
#15 = CARTESIAN_POINT ( 'NONE',  ( 0.0000000000000000000, 0.0000000000000000000, 8.000000000000000000 ) ) ;
#16 = ORIENTED_EDGE ( 'NONE', *, *, #48, .T. ) ;
#17 = CARTESIAN_POINT ( 'NONE',  ( -2.100000000000000089, 0.0000000000000000000, 8.000000000000000000 ) ) ;
#18 = ORIENTED_EDGE ( 'NONE', *, *, #155, .T. ) ;
#19 = ADVANCED_FACE ( 'NONE', ( #186, #183 ), #169, .T. ) ;
#20 = CIRCLE ( 'NONE', #101, 2.100000000000000089 ) ;
#21 = ADVANCED_FACE ( 'NONE', ( #64 ), #44, .F. ) ;
#22 = AXIS2_PLACEMENT_3D ( 'NONE', #193, #156, #124 ) ;
#23 = AXIS2_PLACEMENT_3D ( 'NONE', #58, #117, #151 ) ;
#24 = CARTESIAN_POINT ( 'NONE',  ( -2.100000000000000089, 0.0000000000000000000, 8.000000000000000000 ) ) ;
#25 = CIRCLE ( 'NONE', #49, 3.000000000000000444 ) ;
#26 = ORIENTED_EDGE ( 'NONE', *, *, #108, .F. ) ;
#27 = CARTESIAN_POINT ( 'NONE',  ( -3.000000000000000444, 0.0000000000000000000, 8.000000000000000000 ) ) ;
#28 = DIRECTION ( 'NONE',  ( -0.0000000000000000000, -0.0000000000000000000, -1.000000000000000000 ) ) ;
#29 = CIRCLE ( 'NONE', #153, 3.000000000000000444 ) ;
#30 =( LENGTH_UNIT ( ) NAMED_UNIT ( * ) SI_UNIT ( .MILLI., .METRE. ) );
#31 = VERTEX_POINT ( 'NONE', #39 ) ;
#32 = SURFACE_SIDE_STYLE ('',( #3 ) ) ;
#33 = CARTESIAN_POINT ( 'NONE',  ( 0.0000000000000000000, 0.0000000000000000000, 8.000000000000000000 ) ) ;
#34 = PRODUCT_CONTEXT ( 'NONE', #41, 'mechanical' ) ;
#35 =( GEOMETRIC_REPRESENTATION_CONTEXT ( 3 ) GLOBAL_UNCERTAINTY_ASSIGNED_CONTEXT ( ( #102 ) ) GLOBAL_UNIT_ASSIGNED_CONTEXT ( ( #86, #83, #12 ) ) REPRESENTATION_CONTEXT ( 'NONE', 'WORKASPACE' ) );
#36 = SURFACE_STYLE_USAGE ( .BOTH. , #62 ) ;
#37 = PRESENTATION_STYLE_ASSIGNMENT (( #206 ) ) ;
#38 = CARTESIAN_POINT ( 'NONE',  ( 0.0000000000000000000, 0.0000000000000000000, 8.000000000000000000 ) ) ;
#39 = CARTESIAN_POINT ( 'NONE',  ( 3.000000000000000444, 3.673940397442060361E-16, 8.000000000000000000 ) ) ;
#40 = ORIENTED_EDGE ( 'NONE', *, *, #76, .F. ) ;
#41 = APPLICATION_CONTEXT ( 'automotive_design' ) ;
#42 = CARTESIAN_POINT ( 'NONE',  ( 0.0000000000000000000, 0.0000000000000000000, 8.000000000000000000 ) ) ;
#43 = FACE_OUTER_BOUND ( 'NONE', #121, .T. ) ;
#44 = CYLINDRICAL_SURFACE ( 'NONE', #170, 2.100000000000000089 ) ;
#45 = ORIENTED_EDGE ( 'NONE', *, *, #150, .F. ) ;
#46 = ORIENTED_EDGE ( 'NONE', *, *, #212, .F. ) ;
#47 = CARTESIAN_POINT ( 'NONE',  ( 0.0000000000000000000, 0.0000000000000000000, 8.000000000000000000 ) ) ;
#48 = EDGE_CURVE ( 'NONE', #113, #207, #85, .T. ) ;
#49 = AXIS2_PLACEMENT_3D ( 'NONE', #159, #11, #197 ) ;
#50 = CARTESIAN_POINT ( 'NONE',  ( 0.0000000000000000000, 0.0000000000000000000, -8.000000000000000000 ) ) ;
#51 = CARTESIAN_POINT ( 'NONE',  ( 0.0000000000000000000, 0.0000000000000000000, -8.000000000000000000 ) ) ;
#52 = CARTESIAN_POINT ( 'NONE',  ( 3.000000000000000444, 3.673940397442060361E-16, 8.000000000000000000 ) ) ;
#53 = ADVANCED_FACE ( 'NONE', ( #43 ), #54, .T. ) ;
#54 = CYLINDRICAL_SURFACE ( 'NONE', #79, 3.000000000000000444 ) ;
#55 = STYLED_ITEM ( 'NONE', ( #37 ), #214 ) ;
#56 = AXIS2_PLACEMENT_3D ( 'NONE', #50, #147, #143 ) ;
#57 = CARTESIAN_POINT ( 'NONE',  ( 0.0000000000000000000, 0.0000000000000000000, -8.000000000000000000 ) ) ;
#58 = CARTESIAN_POINT ( 'NONE',  ( 0.0000000000000000000, 0.0000000000000000000, 8.000000000000000000 ) ) ;
#59 = VERTEX_POINT ( 'NONE', #27 ) ;
#60 = FILL_AREA_STYLE_COLOUR ( '', #133 ) ;
#61 = ORIENTED_EDGE ( 'NONE', *, *, #178, .T. ) ;
#62 = SURFACE_SIDE_STYLE ('',( #123 ) ) ;
#63 = CIRCLE ( 'NONE', #194, 2.100000000000000089 ) ;
#64 = FACE_OUTER_BOUND ( 'NONE', #116, .T. ) ;
#65 = MANIFOLD_SOLID_BREP ( 'Extrude1', #137 ) ;
#66 = DIRECTION ( 'NONE',  ( 0.0000000000000000000, 0.0000000000000000000, 1.000000000000000000 ) ) ;
#67 = ORIENTED_EDGE ( 'NONE', *, *, #199, .T. ) ;
#68 = DIRECTION ( 'NONE',  ( 1.000000000000000000, 0.0000000000000000000, 0.0000000000000000000 ) ) ;
#69 = ORIENTED_EDGE ( 'NONE', *, *, #48, .F. ) ;
#70 = ORIENTED_EDGE ( 'NONE', *, *, #100, .T. ) ;
#71 = DIRECTION ( 'NONE',  ( 0.0000000000000000000, 0.0000000000000000000, 1.000000000000000000 ) ) ;
#72 = MECHANICAL_DESIGN_GEOMETRIC_PRESENTATION_REPRESENTATION (  '', ( #55 ), #35 ) ;
#73 = LINE ( 'NONE', #89, #7 ) ;
#74 = CARTESIAN_POINT ( 'NONE',  ( -3.000000000000000444, 0.0000000000000000000, -8.000000000000000000 ) ) ;
#75 = AXIS2_PLACEMENT_3D ( 'NONE', #47, #154, #182 ) ;
#76 = EDGE_CURVE ( 'NONE', #207, #187, #84, .T. ) ;
#77 =( NAMED_UNIT ( * ) SI_UNIT ( $, .STERADIAN. ) SOLID_ANGLE_UNIT ( ) );
#78 = FILL_AREA_STYLE_COLOUR ( '', #88 ) ;
#79 = AXIS2_PLACEMENT_3D ( 'NONE', #172, #112, #184 ) ;
#80 =( NAMED_UNIT ( * ) SI_UNIT ( $, .STERADIAN. ) SOLID_ANGLE_UNIT ( ) );
#81 = DIRECTION ( 'NONE',  ( 1.000000000000000000, 0.0000000000000000000, 0.0000000000000000000 ) ) ;
#82 = EDGE_CURVE ( 'NONE', #31, #59, #120, .T. ) ;
#83 =( NAMED_UNIT ( * ) PLANE_ANGLE_UNIT ( ) SI_UNIT ( $, .RADIAN. ) );
#84 = LINE ( 'NONE', #17, #93 ) ;
#85 = CIRCLE ( 'NONE', #196, 2.100000000000000089 ) ;
#86 =( LENGTH_UNIT ( ) NAMED_UNIT ( * ) SI_UNIT ( .MILLI., .METRE. ) );
#87 = DIRECTION ( 'NONE',  ( -0.0000000000000000000, -0.0000000000000000000, -1.000000000000000000 ) ) ;
#88 = COLOUR_RGB ( '',0.7529411764705882248, 0.7529411764705882248, 0.7529411764705882248 ) ;
#89 = CARTESIAN_POINT ( 'NONE',  ( -3.000000000000000444, 0.0000000000000000000, 8.000000000000000000 ) ) ;
#90 = PRODUCT_DEFINITION_SHAPE ( 'NONE', 'NONE',  #126 ) ;
#91 =( LENGTH_UNIT ( ) NAMED_UNIT ( * ) SI_UNIT ( .MILLI., .METRE. ) );
#92 = ORIENTED_EDGE ( 'NONE', *, *, #150, .T. ) ;
#93 = VECTOR ( 'NONE', #87, 1000.000000000000000 ) ;
#94 = CARTESIAN_POINT ( 'NONE',  ( 3.000000000000000444, 3.673940397442060361E-16, -8.000000000000000000 ) ) ;
#95 = EDGE_LOOP ( 'NONE', ( #45, #16, #165, #204 ) ) ;
#96 = FACE_OUTER_BOUND ( 'NONE', #157, .T. ) ;
#97 = PRODUCT_DEFINITION_CONTEXT ( 'detailed design', #136, 'design' ) ;
#98 = PRODUCT_RELATED_PRODUCT_CATEGORY ( 'part', '', ( #99 ) ) ;
#99 = PRODUCT ( 'am-1530 6mmOD x 4mmID x 16mmt AL Spacer', 'am-1530 6mmOD x 4mmID x 16mmt AL Spacer', '', ( #34 ) ) ;
#100 = EDGE_CURVE ( 'NONE', #59, #107, #73, .T. ) ;
#101 = AXIS2_PLACEMENT_3D ( 'NONE', #109, #66, #68 ) ;
#102 = UNCERTAINTY_MEASURE_WITH_UNIT (LENGTH_MEASURE( 1.000000000000000082E-05 ), #86, 'distance_accuracy_value', 'NONE');
#103 = FACE_BOUND ( 'NONE', #200, .T. ) ;
#104 = CARTESIAN_POINT ( 'NONE',  ( 0.0000000000000000000, 0.0000000000000000000, -8.000000000000000000 ) ) ;
#105 = DIRECTION ( 'NONE',  ( -0.0000000000000000000, -0.0000000000000000000, -1.000000000000000000 ) ) ;
#106 = PRESENTATION_LAYER_ASSIGNMENT (  '', '', ( #185 ) ) ;
#107 = VERTEX_POINT ( 'NONE', #74 ) ;
#108 = EDGE_CURVE ( 'NONE', #107, #188, #29, .T. ) ;
#109 = CARTESIAN_POINT ( 'NONE',  ( 0.0000000000000000000, 0.0000000000000000000, 8.000000000000000000 ) ) ;
#110 = ORIENTED_EDGE ( 'NONE', *, *, #100, .F. ) ;
#111 = CIRCLE ( 'NONE', #23, 3.000000000000000444 ) ;
#112 = DIRECTION ( 'NONE',  ( -0.0000000000000000000, -0.0000000000000000000, -1.000000000000000000 ) ) ;
#113 = VERTEX_POINT ( 'NONE', #173 ) ;
#114 = EDGE_CURVE ( 'NONE', #31, #188, #131, .T. ) ;
#115 = DIRECTION ( 'NONE',  ( -0.0000000000000000000, -0.0000000000000000000, -1.000000000000000000 ) ) ;
#116 = EDGE_LOOP ( 'NONE', ( #61, #92, #190, #40 ) ) ;
#117 = DIRECTION ( 'NONE',  ( 0.0000000000000000000, 0.0000000000000000000, 1.000000000000000000 ) ) ;
#118 = VECTOR ( 'NONE', #28, 1000.000000000000000 ) ;
#119 = CARTESIAN_POINT ( 'NONE',  ( 0.0000000000000000000, 0.0000000000000000000, 8.000000000000000000 ) ) ;
#120 = CIRCLE ( 'NONE', #142, 3.000000000000000444 ) ;
#121 = EDGE_LOOP ( 'NONE', ( #6, #161, #70, #125 ) ) ;
#122 =( NAMED_UNIT ( * ) PLANE_ANGLE_UNIT ( ) SI_UNIT ( $, .RADIAN. ) );
#123 = SURFACE_STYLE_FILL_AREA ( #171 ) ;
#124 = DIRECTION ( 'NONE',  ( 1.000000000000000000, 0.0000000000000000000, 0.0000000000000000000 ) ) ;
#125 = ORIENTED_EDGE ( 'NONE', *, *, #108, .T. ) ;
#126 = PRODUCT_DEFINITION ( 'UNKNOWN', '', #166, #97 ) ;
#127 = FACE_OUTER_BOUND ( 'NONE', #95, .T. ) ;
#128 = APPLICATION_PROTOCOL_DEFINITION ( 'draft international standard', 'automotive_design', 1998, #41 ) ;
#129 = LINE ( 'NONE', #4, #158 ) ;
#130 = DIRECTION ( 'NONE',  ( 1.000000000000000000, 0.0000000000000000000, 0.0000000000000000000 ) ) ;
#131 = LINE ( 'NONE', #52, #118 ) ;
#132 = ORIENTED_EDGE ( 'NONE', *, *, #82, .T. ) ;
#133 = COLOUR_RGB ( '',0.7529411764705882248, 0.7529411764705882248, 0.7529411764705882248 ) ;
#134 = ADVANCED_FACE ( 'NONE', ( #96 ), #144, .T. ) ;
#135 = CARTESIAN_POINT ( 'NONE',  ( 2.100000000000000089, 2.571758278209441957E-16, -8.000000000000000000 ) ) ;
#136 = APPLICATION_CONTEXT ( 'automotive_design' ) ;
#137 = CLOSED_SHELL ( 'NONE', ( #21, #134, #19, #180, #53, #13 ) ) ;
#138 = CARTESIAN_POINT ( 'NONE',  ( -2.100000000000000089, 0.0000000000000000000, -8.000000000000000000 ) ) ;
#139 = CYLINDRICAL_SURFACE ( 'NONE', #75, 2.100000000000000089 ) ;
#140 = APPLICATION_PROTOCOL_DEFINITION ( 'draft international standard', 'automotive_design', 1998, #136 ) ;
#141 = DIRECTION ( 'NONE',  ( 0.0000000000000000000, 0.0000000000000000000, 1.000000000000000000 ) ) ;
#142 = AXIS2_PLACEMENT_3D ( 'NONE', #15, #179, #81 ) ;
#143 = DIRECTION ( 'NONE',  ( 1.000000000000000000, 0.0000000000000000000, -0.0000000000000000000 ) ) ;
#144 = CYLINDRICAL_SURFACE ( 'NONE', #181, 3.000000000000000444 ) ;
#145 = AXIS2_PLACEMENT_3D ( 'NONE', #38, #205, #149 ) ;
#146 = DIRECTION ( 'NONE',  ( -1.000000000000000000, 0.0000000000000000000, 0.0000000000000000000 ) ) ;
#147 = DIRECTION ( 'NONE',  ( 0.0000000000000000000, 0.0000000000000000000, 1.000000000000000000 ) ) ;
#148 = ORIENTED_EDGE ( 'NONE', *, *, #114, .T. ) ;
#149 = DIRECTION ( 'NONE',  ( 1.000000000000000000, 0.0000000000000000000, -0.0000000000000000000 ) ) ;
#150 = EDGE_CURVE ( 'NONE', #113, #195, #129, .T. ) ;
#151 = DIRECTION ( 'NONE',  ( 1.000000000000000000, 0.0000000000000000000, 0.0000000000000000000 ) ) ;
#152 = EDGE_LOOP ( 'NONE', ( #26, #46 ) ) ;
#153 = AXIS2_PLACEMENT_3D ( 'NONE', #51, #141, #191 ) ;
#154 = DIRECTION ( 'NONE',  ( -0.0000000000000000000, -0.0000000000000000000, -1.000000000000000000 ) ) ;
#155 = EDGE_CURVE ( 'NONE', #187, #195, #211, .T. ) ;
#156 = DIRECTION ( 'NONE',  ( 0.0000000000000000000, 0.0000000000000000000, 1.000000000000000000 ) ) ;
#157 = EDGE_LOOP ( 'NONE', ( #163, #148, #8, #110 ) ) ;
#158 = VECTOR ( 'NONE', #192, 1000.000000000000000 ) ;
#159 = CARTESIAN_POINT ( 'NONE',  ( 0.0000000000000000000, 0.0000000000000000000, -8.000000000000000000 ) ) ;
#160 = FILL_AREA_STYLE ('',( #60 ) ) ;
#161 = ORIENTED_EDGE ( 'NONE', *, *, #174, .F. ) ;
#162 = UNCERTAINTY_MEASURE_WITH_UNIT (LENGTH_MEASURE( 1.000000000000000082E-05 ), #30, 'distance_accuracy_value', 'NONE');
#163 = ORIENTED_EDGE ( 'NONE', *, *, #82, .F. ) ;
#164 = SHAPE_DEFINITION_REPRESENTATION ( #90, #214 ) ;
#165 = ORIENTED_EDGE ( 'NONE', *, *, #76, .T. ) ;
#166 = PRODUCT_DEFINITION_FORMATION_WITH_SPECIFIED_SOURCE ( 'ANY', '', #99, .NOT_KNOWN. ) ;
#167 = PLANE ( 'NONE',  #56 ) ;
#168 = PRESENTATION_STYLE_ASSIGNMENT (( #36 ) ) ;
#169 = PLANE ( 'NONE',  #145 ) ;
#170 = AXIS2_PLACEMENT_3D ( 'NONE', #33, #105, #146 ) ;
#171 = FILL_AREA_STYLE ('',( #78 ) ) ;
#172 = CARTESIAN_POINT ( 'NONE',  ( 0.0000000000000000000, 0.0000000000000000000, 8.000000000000000000 ) ) ;
#173 = CARTESIAN_POINT ( 'NONE',  ( 2.100000000000000089, 2.571758278209441957E-16, 8.000000000000000000 ) ) ;
#174 = EDGE_CURVE ( 'NONE', #59, #31, #111, .T. ) ;
#175 = DIRECTION ( 'NONE',  ( 1.000000000000000000, 0.0000000000000000000, 0.0000000000000000000 ) ) ;
#176 = DIRECTION ( 'NONE',  ( -0.0000000000000000000, -0.0000000000000000000, -1.000000000000000000 ) ) ;
#177 = DIRECTION ( 'NONE',  ( 0.0000000000000000000, 0.0000000000000000000, 1.000000000000000000 ) ) ;
#178 = EDGE_CURVE ( 'NONE', #207, #113, #20, .T. ) ;
#179 = DIRECTION ( 'NONE',  ( 0.0000000000000000000, 0.0000000000000000000, 1.000000000000000000 ) ) ;
#180 = ADVANCED_FACE ( 'NONE', ( #210, #103 ), #167, .F. ) ;
#181 = AXIS2_PLACEMENT_3D ( 'NONE', #42, #115, #202 ) ;
#182 = DIRECTION ( 'NONE',  ( -1.000000000000000000, 0.0000000000000000000, 0.0000000000000000000 ) ) ;
#183 = FACE_BOUND ( 'NONE', #189, .T. ) ;
#184 = DIRECTION ( 'NONE',  ( -1.000000000000000000, 0.0000000000000000000, 0.0000000000000000000 ) ) ;
#185 = STYLED_ITEM ( 'NONE', ( #168 ), #65 ) ;
#186 = FACE_OUTER_BOUND ( 'NONE', #5, .T. ) ;
#187 = VERTEX_POINT ( 'NONE', #138 ) ;
#188 = VERTEX_POINT ( 'NONE', #94 ) ;
#189 = EDGE_LOOP ( 'NONE', ( #14, #69 ) ) ;
#190 = ORIENTED_EDGE ( 'NONE', *, *, #155, .F. ) ;
#191 = DIRECTION ( 'NONE',  ( 1.000000000000000000, 0.0000000000000000000, 0.0000000000000000000 ) ) ;
#192 = DIRECTION ( 'NONE',  ( -0.0000000000000000000, -0.0000000000000000000, -1.000000000000000000 ) ) ;
#193 = CARTESIAN_POINT ( 'NONE',  ( 0.0000000000000000000, 0.0000000000000000000, 0.0000000000000000000 ) ) ;
#194 = AXIS2_PLACEMENT_3D ( 'NONE', #104, #177, #175 ) ;
#195 = VERTEX_POINT ( 'NONE', #135 ) ;
#196 = AXIS2_PLACEMENT_3D ( 'NONE', #119, #71, #203 ) ;
#197 = DIRECTION ( 'NONE',  ( 1.000000000000000000, 0.0000000000000000000, 0.0000000000000000000 ) ) ;
#198 = ORIENTED_EDGE ( 'NONE', *, *, #174, .T. ) ;
#199 = EDGE_CURVE ( 'NONE', #195, #187, #63, .T. ) ;
#200 = EDGE_LOOP ( 'NONE', ( #18, #67 ) ) ;
#201 = DIRECTION ( 'NONE',  ( 0.0000000000000000000, 0.0000000000000000000, 1.000000000000000000 ) ) ;
#202 = DIRECTION ( 'NONE',  ( -1.000000000000000000, 0.0000000000000000000, 0.0000000000000000000 ) ) ;
#203 = DIRECTION ( 'NONE',  ( 1.000000000000000000, 0.0000000000000000000, 0.0000000000000000000 ) ) ;
#204 = ORIENTED_EDGE ( 'NONE', *, *, #199, .F. ) ;
#205 = DIRECTION ( 'NONE',  ( 0.0000000000000000000, 0.0000000000000000000, 1.000000000000000000 ) ) ;
#206 = SURFACE_STYLE_USAGE ( .BOTH. , #32 ) ;
#207 = VERTEX_POINT ( 'NONE', #24 ) ;
#208 = MECHANICAL_DESIGN_GEOMETRIC_PRESENTATION_REPRESENTATION (  '', ( #185 ), #10 ) ;
#209 =( NAMED_UNIT ( * ) PLANE_ANGLE_UNIT ( ) SI_UNIT ( $, .RADIAN. ) );
#210 = FACE_OUTER_BOUND ( 'NONE', #152, .T. ) ;
#211 = CIRCLE ( 'NONE', #2, 2.100000000000000089 ) ;
#212 = EDGE_CURVE ( 'NONE', #188, #107, #25, .T. ) ;
#213 = UNCERTAINTY_MEASURE_WITH_UNIT (LENGTH_MEASURE( 1.000000000000000082E-05 ), #91, 'distance_accuracy_value', 'NONE');
#214 = ADVANCED_BREP_SHAPE_REPRESENTATION ( 'am-1530 6mmOD x 4mmID x 16mmt AL Spacer', ( #65, #22 ), #1 ) ;
ENDSEC;
END-ISO-10303-21;
