ISO-10303-21;
HEADER;
FILE_DESCRIPTION (( 'STEP AP214' ),
    '1' );
FILE_NAME ('am-1531 6mmOD x 4mmID x 5mmt Spacer.STEP',
    '2019-09-18T15:45:24',
    ( '' ),
    ( '' ),
    'SwSTEP 2.0',
    'SolidWorks 2019',
    '' );
FILE_SCHEMA (( 'AUTOMOTIVE_DESIGN' ));
ENDSEC;

DATA;
#1 = CLOSED_SHELL ( 'NONE', ( #188, #144, #79, #55, #12, #24 ) ) ;
#2 = DIRECTION ( 'NONE',  ( 0.0000000000000000000, 0.0000000000000000000, 1.000000000000000000 ) ) ;
#3 = ORIENTED_EDGE ( 'NONE', *, *, #165, .T. ) ;
#4 = PRODUCT_RELATED_PRODUCT_CATEGORY ( 'part', '', ( #132 ) ) ;
#5 = EDGE_LOOP ( 'NONE', ( #203, #190, #72, #212 ) ) ;
#6 = EDGE_CURVE ( 'NONE', #99, #34, #128, .T. ) ;
#7 = EDGE_LOOP ( 'NONE', ( #199, #62 ) ) ;
#8 = CARTESIAN_POINT ( 'NONE',  ( 3.000000000000000444, 3.673940397442060361E-16, 2.500000000000000000 ) ) ;
#9 =( NAMED_UNIT ( * ) PLANE_ANGLE_UNIT ( ) SI_UNIT ( $, .RADIAN. ) );
#10 = EDGE_CURVE ( 'NONE', #34, #99, #118, .T. ) ;
#11 = DIRECTION ( 'NONE',  ( 0.0000000000000000000, 0.0000000000000000000, 1.000000000000000000 ) ) ;
#12 = ADVANCED_FACE ( 'NONE', ( #121 ), #108, .T. ) ;
#13 = APPLICATION_PROTOCOL_DEFINITION ( 'draft international standard', 'automotive_design', 1998, #176 ) ;
#14 = DIRECTION ( 'NONE',  ( 1.000000000000000000, 0.0000000000000000000, -0.0000000000000000000 ) ) ;
#15 = DIRECTION ( 'NONE',  ( 0.0000000000000000000, 0.0000000000000000000, 1.000000000000000000 ) ) ;
#16 = CARTESIAN_POINT ( 'NONE',  ( 0.0000000000000000000, 0.0000000000000000000, 2.500000000000000000 ) ) ;
#17 = ADVANCED_BREP_SHAPE_REPRESENTATION ( 'am-1531 6mmOD x 4mmID x 5mmt Spacer', ( #40, #196 ), #150 ) ;
#18 = SURFACE_STYLE_FILL_AREA ( #68 ) ;
#19 = CIRCLE ( 'NONE', #164, 2.100000000000000089 ) ;
#20 = DIRECTION ( 'NONE',  ( -0.0000000000000000000, -0.0000000000000000000, -1.000000000000000000 ) ) ;
#21 = CARTESIAN_POINT ( 'NONE',  ( 0.0000000000000000000, 0.0000000000000000000, 2.500000000000000000 ) ) ;
#22 = MECHANICAL_DESIGN_GEOMETRIC_PRESENTATION_REPRESENTATION (  '', ( #206 ), #89 ) ;
#23 = CARTESIAN_POINT ( 'NONE',  ( 0.0000000000000000000, 0.0000000000000000000, -2.500000000000000000 ) ) ;
#24 = ADVANCED_FACE ( 'NONE', ( #125 ), #192, .F. ) ;
#25 =( LENGTH_UNIT ( ) NAMED_UNIT ( * ) SI_UNIT ( .MILLI., .METRE. ) );
#26 = COLOUR_RGB ( '',0.8431372549019607865, 0.8156862745098039102, 0.7529411764705882248 ) ;
#27 = PRESENTATION_STYLE_ASSIGNMENT (( #39 ) ) ;
#28 = LINE ( 'NONE', #98, #167 ) ;
#29 = EDGE_CURVE ( 'NONE', #174, #194, #28, .T. ) ;
#30 = CARTESIAN_POINT ( 'NONE',  ( -2.100000000000000089, 0.0000000000000000000, 2.500000000000000000 ) ) ;
#31 = FACE_OUTER_BOUND ( 'NONE', #5, .T. ) ;
#32 = SURFACE_SIDE_STYLE ('',( #66 ) ) ;
#33 = AXIS2_PLACEMENT_3D ( 'NONE', #16, #117, #44 ) ;
#34 = VERTEX_POINT ( 'NONE', #114 ) ;
#35 = MECHANICAL_DESIGN_GEOMETRIC_PRESENTATION_REPRESENTATION (  '', ( #207 ), #78 ) ;
#36 = EDGE_LOOP ( 'NONE', ( #200, #47, #198, #120 ) ) ;
#37 = DIRECTION ( 'NONE',  ( 1.000000000000000000, 0.0000000000000000000, -0.0000000000000000000 ) ) ;
#38 = CARTESIAN_POINT ( 'NONE',  ( 0.0000000000000000000, 0.0000000000000000000, -2.500000000000000000 ) ) ;
#39 = SURFACE_STYLE_USAGE ( .BOTH. , #32 ) ;
#40 = MANIFOLD_SOLID_BREP ( 'Extrude1', #1 ) ;
#41 = DIRECTION ( 'NONE',  ( -0.0000000000000000000, -0.0000000000000000000, -1.000000000000000000 ) ) ;
#42 = VECTOR ( 'NONE', #41, 1000.000000000000000 ) ;
#43 = SURFACE_SIDE_STYLE ('',( #18 ) ) ;
#44 = DIRECTION ( 'NONE',  ( -1.000000000000000000, 0.0000000000000000000, 0.0000000000000000000 ) ) ;
#45 =( NAMED_UNIT ( * ) PLANE_ANGLE_UNIT ( ) SI_UNIT ( $, .RADIAN. ) );
#46 = DIRECTION ( 'NONE',  ( -0.0000000000000000000, -0.0000000000000000000, -1.000000000000000000 ) ) ;
#47 = ORIENTED_EDGE ( 'NONE', *, *, #208, .T. ) ;
#48 =( NAMED_UNIT ( * ) SI_UNIT ( $, .STERADIAN. ) SOLID_ANGLE_UNIT ( ) );
#49 = DIRECTION ( 'NONE',  ( 0.0000000000000000000, 0.0000000000000000000, 1.000000000000000000 ) ) ;
#50 = ORIENTED_EDGE ( 'NONE', *, *, #126, .F. ) ;
#51 = CARTESIAN_POINT ( 'NONE',  ( 2.100000000000000089, 2.571758278209441957E-16, 2.500000000000000000 ) ) ;
#52 = EDGE_CURVE ( 'NONE', #174, #56, #179, .T. ) ;
#53 = CARTESIAN_POINT ( 'NONE',  ( -2.100000000000000089, 0.0000000000000000000, -2.500000000000000000 ) ) ;
#54 = UNCERTAINTY_MEASURE_WITH_UNIT (LENGTH_MEASURE( 1.000000000000000082E-05 ), #25, 'distance_accuracy_value', 'NONE');
#55 = ADVANCED_FACE ( 'NONE', ( #177, #205 ), #155, .F. ) ;
#56 = VERTEX_POINT ( 'NONE', #86 ) ;
#57 = CIRCLE ( 'NONE', #84, 3.000000000000000444 ) ;
#58 = CYLINDRICAL_SURFACE ( 'NONE', #81, 3.000000000000000444 ) ;
#59 = CARTESIAN_POINT ( 'NONE',  ( -3.000000000000000444, 0.0000000000000000000, 2.500000000000000000 ) ) ;
#60 = UNCERTAINTY_MEASURE_WITH_UNIT (LENGTH_MEASURE( 1.000000000000000082E-05 ), #116, 'distance_accuracy_value', 'NONE');
#61 = PRODUCT_DEFINITION ( 'UNKNOWN', '', #186, #96 ) ;
#62 = ORIENTED_EDGE ( 'NONE', *, *, #87, .F. ) ;
#63 = FILL_AREA_STYLE_COLOUR ( '', #113 ) ;
#64 = CARTESIAN_POINT ( 'NONE',  ( 0.0000000000000000000, 0.0000000000000000000, -2.500000000000000000 ) ) ;
#65 = EDGE_LOOP ( 'NONE', ( #102, #162, #3, #184 ) ) ;
#66 = SURFACE_STYLE_FILL_AREA ( #214 ) ;
#67 = AXIS2_PLACEMENT_3D ( 'NONE', #181, #2, #14 ) ;
#68 = FILL_AREA_STYLE ('',( #111 ) ) ;
#69 = DIRECTION ( 'NONE',  ( -0.0000000000000000000, -0.0000000000000000000, -1.000000000000000000 ) ) ;
#70 = EDGE_CURVE ( 'NONE', #73, #194, #57, .T. ) ;
#71 = ORIENTED_EDGE ( 'NONE', *, *, #29, .F. ) ;
#72 = ORIENTED_EDGE ( 'NONE', *, *, #210, .T. ) ;
#73 = VERTEX_POINT ( 'NONE', #95 ) ;
#74 = CIRCLE ( 'NONE', #101, 3.000000000000000444 ) ;
#75 = CARTESIAN_POINT ( 'NONE',  ( 3.000000000000000444, 3.673940397442060361E-16, -2.500000000000000000 ) ) ;
#76 = AXIS2_PLACEMENT_3D ( 'NONE', #94, #15, #37 ) ;
#77 = CARTESIAN_POINT ( 'NONE',  ( 0.0000000000000000000, 0.0000000000000000000, 2.500000000000000000 ) ) ;
#78 =( GEOMETRIC_REPRESENTATION_CONTEXT ( 3 ) GLOBAL_UNCERTAINTY_ASSIGNED_CONTEXT ( ( #178 ) ) GLOBAL_UNIT_ASSIGNED_CONTEXT ( ( #191, #193, #48 ) ) REPRESENTATION_CONTEXT ( 'NONE', 'WORKASPACE' ) );
#79 = ADVANCED_FACE ( 'NONE', ( #90, #110 ), #143, .T. ) ;
#80 = CIRCLE ( 'NONE', #123, 2.100000000000000089 ) ;
#81 = AXIS2_PLACEMENT_3D ( 'NONE', #189, #134, #204 ) ;
#82 = ORIENTED_EDGE ( 'NONE', *, *, #136, .T. ) ;
#83 = DIRECTION ( 'NONE',  ( 0.0000000000000000000, 0.0000000000000000000, 1.000000000000000000 ) ) ;
#84 = AXIS2_PLACEMENT_3D ( 'NONE', #23, #159, #160 ) ;
#85 = AXIS2_PLACEMENT_3D ( 'NONE', #77, #107, #168 ) ;
#86 = CARTESIAN_POINT ( 'NONE',  ( -3.000000000000000444, 0.0000000000000000000, 2.500000000000000000 ) ) ;
#87 = EDGE_CURVE ( 'NONE', #105, #163, #80, .T. ) ;
#88 = ORIENTED_EDGE ( 'NONE', *, *, #126, .T. ) ;
#89 =( GEOMETRIC_REPRESENTATION_CONTEXT ( 3 ) GLOBAL_UNCERTAINTY_ASSIGNED_CONTEXT ( ( #54 ) ) GLOBAL_UNIT_ASSIGNED_CONTEXT ( ( #25, #45, #146 ) ) REPRESENTATION_CONTEXT ( 'NONE', 'WORKASPACE' ) );
#90 = FACE_OUTER_BOUND ( 'NONE', #153, .T. ) ;
#91 = VECTOR ( 'NONE', #69, 1000.000000000000000 ) ;
#92 = DIRECTION ( 'NONE',  ( 1.000000000000000000, 0.0000000000000000000, 0.0000000000000000000 ) ) ;
#93 = DIRECTION ( 'NONE',  ( 1.000000000000000000, 0.0000000000000000000, 0.0000000000000000000 ) ) ;
#94 = CARTESIAN_POINT ( 'NONE',  ( 0.0000000000000000000, 0.0000000000000000000, 2.500000000000000000 ) ) ;
#95 = CARTESIAN_POINT ( 'NONE',  ( -3.000000000000000444, 0.0000000000000000000, -2.500000000000000000 ) ) ;
#96 = PRODUCT_DEFINITION_CONTEXT ( 'detailed design', #154, 'design' ) ;
#97 = DIRECTION ( 'NONE',  ( 0.0000000000000000000, 0.0000000000000000000, 1.000000000000000000 ) ) ;
#98 = CARTESIAN_POINT ( 'NONE',  ( 3.000000000000000444, 3.673940397442060361E-16, 2.500000000000000000 ) ) ;
#99 = VERTEX_POINT ( 'NONE', #53 ) ;
#100 = CYLINDRICAL_SURFACE ( 'NONE', #33, 2.100000000000000089 ) ;
#101 = AXIS2_PLACEMENT_3D ( 'NONE', #135, #97, #119 ) ;
#102 = ORIENTED_EDGE ( 'NONE', *, *, #208, .F. ) ;
#103 = CARTESIAN_POINT ( 'NONE',  ( 0.0000000000000000000, 0.0000000000000000000, 2.500000000000000000 ) ) ;
#104 = LINE ( 'NONE', #185, #91 ) ;
#105 = VERTEX_POINT ( 'NONE', #51 ) ;
#106 = SURFACE_STYLE_USAGE ( .BOTH. , #43 ) ;
#107 = DIRECTION ( 'NONE',  ( 0.0000000000000000000, 0.0000000000000000000, 1.000000000000000000 ) ) ;
#108 = CYLINDRICAL_SURFACE ( 'NONE', #158, 3.000000000000000444 ) ;
#109 = ORIENTED_EDGE ( 'NONE', *, *, #70, .F. ) ;
#110 = FACE_BOUND ( 'NONE', #7, .T. ) ;
#111 = FILL_AREA_STYLE_COLOUR ( '', #26 ) ;
#112 = ORIENTED_EDGE ( 'NONE', *, *, #6, .T. ) ;
#113 = COLOUR_RGB ( '',0.8431372549019607865, 0.8156862745098039102, 0.7529411764705882248 ) ;
#114 = CARTESIAN_POINT ( 'NONE',  ( 2.100000000000000089, 2.571758278209441957E-16, -2.500000000000000000 ) ) ;
#115 = DIRECTION ( 'NONE',  ( 1.000000000000000000, 0.0000000000000000000, 0.0000000000000000000 ) ) ;
#116 =( LENGTH_UNIT ( ) NAMED_UNIT ( * ) SI_UNIT ( .MILLI., .METRE. ) );
#117 = DIRECTION ( 'NONE',  ( -0.0000000000000000000, -0.0000000000000000000, -1.000000000000000000 ) ) ;
#118 = CIRCLE ( 'NONE', #173, 2.100000000000000089 ) ;
#119 = DIRECTION ( 'NONE',  ( 1.000000000000000000, 0.0000000000000000000, 0.0000000000000000000 ) ) ;
#120 = ORIENTED_EDGE ( 'NONE', *, *, #165, .F. ) ;
#121 = FACE_OUTER_BOUND ( 'NONE', #148, .T. ) ;
#122 = ORIENTED_EDGE ( 'NONE', *, *, #70, .T. ) ;
#123 = AXIS2_PLACEMENT_3D ( 'NONE', #21, #157, #93 ) ;
#124 = CARTESIAN_POINT ( 'NONE',  ( 0.0000000000000000000, 0.0000000000000000000, -2.500000000000000000 ) ) ;
#125 = FACE_OUTER_BOUND ( 'NONE', #65, .T. ) ;
#126 = EDGE_CURVE ( 'NONE', #56, #174, #74, .T. ) ;
#127 = PRESENTATION_STYLE_ASSIGNMENT (( #106 ) ) ;
#128 = CIRCLE ( 'NONE', #197, 2.100000000000000089 ) ;
#129 = LINE ( 'NONE', #30, #175 ) ;
#130 = ORIENTED_EDGE ( 'NONE', *, *, #52, .T. ) ;
#131 = AXIS2_PLACEMENT_3D ( 'NONE', #38, #49, #115 ) ;
#132 = PRODUCT ( 'am-1531 6mmOD x 4mmID x 5mmt Spacer', 'am-1531 6mmOD x 4mmID x 5mmt Spacer', '', ( #156 ) ) ;
#133 = SHAPE_DEFINITION_REPRESENTATION ( #213, #17 ) ;
#134 = DIRECTION ( 'NONE',  ( -0.0000000000000000000, -0.0000000000000000000, -1.000000000000000000 ) ) ;
#135 = CARTESIAN_POINT ( 'NONE',  ( 0.0000000000000000000, 0.0000000000000000000, 2.500000000000000000 ) ) ;
#136 = EDGE_CURVE ( 'NONE', #56, #73, #149, .T. ) ;
#137 = AXIS2_PLACEMENT_3D ( 'NONE', #103, #20, #195 ) ;
#138 = DIRECTION ( 'NONE',  ( 0.0000000000000000000, 0.0000000000000000000, 1.000000000000000000 ) ) ;
#139 = CARTESIAN_POINT ( 'NONE',  ( 0.0000000000000000000, 0.0000000000000000000, 0.0000000000000000000 ) ) ;
#140 = CIRCLE ( 'NONE', #131, 3.000000000000000444 ) ;
#141 = DIRECTION ( 'NONE',  ( 1.000000000000000000, 0.0000000000000000000, 0.0000000000000000000 ) ) ;
#142 = DIRECTION ( 'NONE',  ( 0.0000000000000000000, 0.0000000000000000000, 1.000000000000000000 ) ) ;
#143 = PLANE ( 'NONE',  #76 ) ;
#144 = ADVANCED_FACE ( 'NONE', ( #31 ), #58, .T. ) ;
#145 = PRESENTATION_LAYER_ASSIGNMENT (  '', '', ( #206 ) ) ;
#146 =( NAMED_UNIT ( * ) SI_UNIT ( $, .STERADIAN. ) SOLID_ANGLE_UNIT ( ) );
#147 =( NAMED_UNIT ( * ) SI_UNIT ( $, .STERADIAN. ) SOLID_ANGLE_UNIT ( ) );
#148 = EDGE_LOOP ( 'NONE', ( #71, #50, #82, #122 ) ) ;
#149 = LINE ( 'NONE', #59, #42 ) ;
#150 =( GEOMETRIC_REPRESENTATION_CONTEXT ( 3 ) GLOBAL_UNCERTAINTY_ASSIGNED_CONTEXT ( ( #60 ) ) GLOBAL_UNIT_ASSIGNED_CONTEXT ( ( #116, #9, #147 ) ) REPRESENTATION_CONTEXT ( 'NONE', 'WORKASPACE' ) );
#151 = DIRECTION ( 'NONE',  ( -1.000000000000000000, 0.0000000000000000000, 0.0000000000000000000 ) ) ;
#152 = APPLICATION_PROTOCOL_DEFINITION ( 'draft international standard', 'automotive_design', 1998, #154 ) ;
#153 = EDGE_LOOP ( 'NONE', ( #88, #130 ) ) ;
#154 = APPLICATION_CONTEXT ( 'automotive_design' ) ;
#155 = PLANE ( 'NONE',  #67 ) ;
#156 = PRODUCT_CONTEXT ( 'NONE', #176, 'mechanical' ) ;
#157 = DIRECTION ( 'NONE',  ( 0.0000000000000000000, 0.0000000000000000000, 1.000000000000000000 ) ) ;
#158 = AXIS2_PLACEMENT_3D ( 'NONE', #209, #46, #151 ) ;
#159 = DIRECTION ( 'NONE',  ( 0.0000000000000000000, 0.0000000000000000000, 1.000000000000000000 ) ) ;
#160 = DIRECTION ( 'NONE',  ( 1.000000000000000000, 0.0000000000000000000, 0.0000000000000000000 ) ) ;
#161 = EDGE_LOOP ( 'NONE', ( #109, #182 ) ) ;
#162 = ORIENTED_EDGE ( 'NONE', *, *, #87, .T. ) ;
#163 = VERTEX_POINT ( 'NONE', #166 ) ;
#164 = AXIS2_PLACEMENT_3D ( 'NONE', #169, #138, #201 ) ;
#165 = EDGE_CURVE ( 'NONE', #163, #99, #129, .T. ) ;
#166 = CARTESIAN_POINT ( 'NONE',  ( -2.100000000000000089, 0.0000000000000000000, 2.500000000000000000 ) ) ;
#167 = VECTOR ( 'NONE', #172, 1000.000000000000000 ) ;
#168 = DIRECTION ( 'NONE',  ( 1.000000000000000000, 0.0000000000000000000, 0.0000000000000000000 ) ) ;
#169 = CARTESIAN_POINT ( 'NONE',  ( 0.0000000000000000000, 0.0000000000000000000, 2.500000000000000000 ) ) ;
#170 = DIRECTION ( 'NONE',  ( -0.0000000000000000000, -0.0000000000000000000, -1.000000000000000000 ) ) ;
#171 = PRESENTATION_LAYER_ASSIGNMENT (  '', '', ( #207 ) ) ;
#172 = DIRECTION ( 'NONE',  ( -0.0000000000000000000, -0.0000000000000000000, -1.000000000000000000 ) ) ;
#173 = AXIS2_PLACEMENT_3D ( 'NONE', #64, #11, #187 ) ;
#174 = VERTEX_POINT ( 'NONE', #8 ) ;
#175 = VECTOR ( 'NONE', #170, 1000.000000000000000 ) ;
#176 = APPLICATION_CONTEXT ( 'automotive_design' ) ;
#177 = FACE_OUTER_BOUND ( 'NONE', #161, .T. ) ;
#178 = UNCERTAINTY_MEASURE_WITH_UNIT (LENGTH_MEASURE( 1.000000000000000082E-05 ), #191, 'distance_accuracy_value', 'NONE');
#179 = CIRCLE ( 'NONE', #85, 3.000000000000000444 ) ;
#180 = EDGE_LOOP ( 'NONE', ( #112, #211 ) ) ;
#181 = CARTESIAN_POINT ( 'NONE',  ( 0.0000000000000000000, 0.0000000000000000000, -2.500000000000000000 ) ) ;
#182 = ORIENTED_EDGE ( 'NONE', *, *, #210, .F. ) ;
#183 = FACE_OUTER_BOUND ( 'NONE', #36, .T. ) ;
#184 = ORIENTED_EDGE ( 'NONE', *, *, #10, .F. ) ;
#185 = CARTESIAN_POINT ( 'NONE',  ( 2.100000000000000089, 2.571758278209441957E-16, 2.500000000000000000 ) ) ;
#186 = PRODUCT_DEFINITION_FORMATION_WITH_SPECIFIED_SOURCE ( 'ANY', '', #132, .NOT_KNOWN. ) ;
#187 = DIRECTION ( 'NONE',  ( 1.000000000000000000, 0.0000000000000000000, 0.0000000000000000000 ) ) ;
#188 = ADVANCED_FACE ( 'NONE', ( #183 ), #100, .F. ) ;
#189 = CARTESIAN_POINT ( 'NONE',  ( 0.0000000000000000000, 0.0000000000000000000, 2.500000000000000000 ) ) ;
#190 = ORIENTED_EDGE ( 'NONE', *, *, #29, .T. ) ;
#191 =( LENGTH_UNIT ( ) NAMED_UNIT ( * ) SI_UNIT ( .MILLI., .METRE. ) );
#192 = CYLINDRICAL_SURFACE ( 'NONE', #137, 2.100000000000000089 ) ;
#193 =( NAMED_UNIT ( * ) PLANE_ANGLE_UNIT ( ) SI_UNIT ( $, .RADIAN. ) );
#194 = VERTEX_POINT ( 'NONE', #75 ) ;
#195 = DIRECTION ( 'NONE',  ( -1.000000000000000000, 0.0000000000000000000, 0.0000000000000000000 ) ) ;
#196 = AXIS2_PLACEMENT_3D ( 'NONE', #139, #142, #141 ) ;
#197 = AXIS2_PLACEMENT_3D ( 'NONE', #124, #83, #92 ) ;
#198 = ORIENTED_EDGE ( 'NONE', *, *, #6, .F. ) ;
#199 = ORIENTED_EDGE ( 'NONE', *, *, #202, .F. ) ;
#200 = ORIENTED_EDGE ( 'NONE', *, *, #202, .T. ) ;
#201 = DIRECTION ( 'NONE',  ( 1.000000000000000000, 0.0000000000000000000, 0.0000000000000000000 ) ) ;
#202 = EDGE_CURVE ( 'NONE', #163, #105, #19, .T. ) ;
#203 = ORIENTED_EDGE ( 'NONE', *, *, #52, .F. ) ;
#204 = DIRECTION ( 'NONE',  ( -1.000000000000000000, 0.0000000000000000000, 0.0000000000000000000 ) ) ;
#205 = FACE_BOUND ( 'NONE', #180, .T. ) ;
#206 = STYLED_ITEM ( 'NONE', ( #127 ), #40 ) ;
#207 = STYLED_ITEM ( 'NONE', ( #27 ), #17 ) ;
#208 = EDGE_CURVE ( 'NONE', #105, #34, #104, .T. ) ;
#209 = CARTESIAN_POINT ( 'NONE',  ( 0.0000000000000000000, 0.0000000000000000000, 2.500000000000000000 ) ) ;
#210 = EDGE_CURVE ( 'NONE', #194, #73, #140, .T. ) ;
#211 = ORIENTED_EDGE ( 'NONE', *, *, #10, .T. ) ;
#212 = ORIENTED_EDGE ( 'NONE', *, *, #136, .F. ) ;
#213 = PRODUCT_DEFINITION_SHAPE ( 'NONE', 'NONE',  #61 ) ;
#214 = FILL_AREA_STYLE ('',( #63 ) ) ;
ENDSEC;
END-ISO-10303-21;
