ISO-10303-21;
HEADER;
FILE_DESCRIPTION (( 'STEP AP214' ),
    '1' );
FILE_NAME ('am-4180 Lamprey Absolute Encoder Magnet Ring.STEP',
    '2019-12-04T15:20:42',
    ( '' ),
    ( '' ),
    'SwSTEP 2.0',
    'SolidWorks 2019',
    '' );
FILE_SCHEMA (( 'AUTOMOTIVE_DESIGN' ));
ENDSEC;

DATA;
#1 = ORIENTED_EDGE ( 'NONE', *, *, #37, .T. ) ;
#2 = CARTESIAN_POINT ( 'NONE',  ( 0.0000000000000000000, 0.0000000000000000000, 0.0000000000000000000 ) ) ;
#3 = ORIENTED_EDGE ( 'NONE', *, *, #23, .F. ) ;
#4 = ORIENTED_EDGE ( 'NONE', *, *, #115, .T. ) ;
#5 = ORIENTED_EDGE ( 'NONE', *, *, #113, .T. ) ;
#6 = AXIS2_PLACEMENT_3D ( 'NONE', #54, #98, #107 ) ;
#7 = EDGE_LOOP ( 'NONE', ( #90 ) ) ;
#8 = ORIENTED_EDGE ( 'NONE', *, *, #37, .F. ) ;
#9 = EDGE_LOOP ( 'NONE', ( #8 ) ) ;
#10 = PRODUCT_DEFINITION_SHAPE ( 'NONE', 'NONE',  #89 ) ;
#11 = DIRECTION ( 'NONE',  ( 1.000000000000000000, 0.0000000000000000000, 0.0000000000000000000 ) ) ;
#12 = CLOSED_SHELL ( 'NONE', ( #124, #100, #77, #32 ) ) ;
#13 = CYLINDRICAL_SURFACE ( 'NONE', #139, 0.6150000000000001021 ) ;
#14 = AXIS2_PLACEMENT_3D ( 'NONE', #27, #79, #34 ) ;
#15 =( NAMED_UNIT ( * ) SI_UNIT ( $, .STERADIAN. ) SOLID_ANGLE_UNIT ( ) );
#16 = CARTESIAN_POINT ( 'NONE',  ( 0.0000000000000000000, 0.0000000000000000000, 0.8150000000000000577 ) ) ;
#17 = CIRCLE ( 'NONE', #18, 0.8150000000000000577 ) ;
#18 = AXIS2_PLACEMENT_3D ( 'NONE', #106, #60, #141 ) ;
#19 = MECHANICAL_DESIGN_GEOMETRIC_PRESENTATION_REPRESENTATION (  '', ( #43 ), #104 ) ;
#20 = FILL_AREA_STYLE_COLOUR ( '', #134 ) ;
#21 = PRESENTATION_LAYER_ASSIGNMENT (  '', '', ( #43 ) ) ;
#22 = CIRCLE ( 'NONE', #14, 0.6150000000000001021 ) ;
#23 = EDGE_CURVE ( 'NONE', #87, #87, #143, .T. ) ;
#24 = EDGE_LOOP ( 'NONE', ( #3 ) ) ;
#25 = DIMENSIONAL_EXPONENTS ( 1.000000000000000000, 0.0000000000000000000, 0.0000000000000000000, 0.0000000000000000000, 0.0000000000000000000, 0.0000000000000000000, 0.0000000000000000000 ) ;
#26 = FILL_AREA_STYLE ('',( #20 ) ) ;
#27 = CARTESIAN_POINT ( 'NONE',  ( 0.0000000000000000000, 0.1873999999999999833, 0.0000000000000000000 ) ) ;
#28 = FACE_OUTER_BOUND ( 'NONE', #62, .T. ) ;
#29 = FILL_AREA_STYLE ('',( #117 ) ) ;
#30 = APPLICATION_CONTEXT ( 'automotive_design' ) ;
#31 = APPLICATION_CONTEXT ( 'automotive_design' ) ;
#32 = ADVANCED_FACE ( 'NONE', ( #50, #69 ), #13, .F. ) ;
#33 =( LENGTH_UNIT ( ) NAMED_UNIT ( * ) SI_UNIT ( $, .METRE. ) );
#34 = DIRECTION ( 'NONE',  ( 0.0000000000000000000, 0.0000000000000000000, 1.000000000000000000 ) ) ;
#35 = UNCERTAINTY_MEASURE_WITH_UNIT (LENGTH_MEASURE( 1.000000000000000082E-05 ), #40, 'distance_accuracy_value', 'NONE');
#36 = DIMENSIONAL_EXPONENTS ( 1.000000000000000000, 0.0000000000000000000, 0.0000000000000000000, 0.0000000000000000000, 0.0000000000000000000, 0.0000000000000000000, 0.0000000000000000000 ) ;
#37 = EDGE_CURVE ( 'NONE', #66, #66, #140, .T. ) ;
#38 = SURFACE_SIDE_STYLE ('',( #130 ) ) ;
#39 = SHAPE_DEFINITION_REPRESENTATION ( #10, #85 ) ;
#40 =( CONVERSION_BASED_UNIT ( 'INCH', #44 ) LENGTH_UNIT ( ) NAMED_UNIT ( #82 ) );
#41 = PLANE ( 'NONE',  #52 ) ;
#42 = DIRECTION ( 'NONE',  ( 0.0000000000000000000, 0.0000000000000000000, 1.000000000000000000 ) ) ;
#43 = STYLED_ITEM ( 'NONE', ( #53 ), #85 ) ;
#44 = LENGTH_MEASURE_WITH_UNIT ( LENGTH_MEASURE( 0.02539999999999999897 ), #33 );
#45 = MANIFOLD_SOLID_BREP ( 'Boss-Extrude1', #12 ) ;
#46 = CARTESIAN_POINT ( 'NONE',  ( 0.0000000000000000000, 0.1873999999999999833, 0.0000000000000000000 ) ) ;
#47 = FACE_OUTER_BOUND ( 'NONE', #7, .T. ) ;
#48 = PLANE ( 'NONE',  #6 ) ;
#49 = AXIS2_PLACEMENT_3D ( 'NONE', #59, #136, #132 ) ;
#50 = FACE_OUTER_BOUND ( 'NONE', #123, .T. ) ;
#51 = DIRECTION ( 'NONE',  ( 0.0000000000000000000, -0.0000000000000000000, 1.000000000000000000 ) ) ;
#52 = AXIS2_PLACEMENT_3D ( 'NONE', #92, #71, #51 ) ;
#53 = PRESENTATION_STYLE_ASSIGNMENT (( #105 ) ) ;
#54 = CARTESIAN_POINT ( 'NONE',  ( 0.0000000000000000000, 0.1873999999999999833, 0.0000000000000000000 ) ) ;
#55 = CYLINDRICAL_SURFACE ( 'NONE', #49, 0.8150000000000000577 ) ;
#56 =( CONVERSION_BASED_UNIT ( 'INCH', #88 ) LENGTH_UNIT ( ) NAMED_UNIT ( #36 ) );
#57 =( GEOMETRIC_REPRESENTATION_CONTEXT ( 3 ) GLOBAL_UNCERTAINTY_ASSIGNED_CONTEXT ( ( #78 ) ) GLOBAL_UNIT_ASSIGNED_CONTEXT ( ( #137, #70, #73 ) ) REPRESENTATION_CONTEXT ( 'NONE', 'WORKASPACE' ) );
#58 = FACE_BOUND ( 'NONE', #63, .T. ) ;
#59 = CARTESIAN_POINT ( 'NONE',  ( 0.0000000000000000000, 0.1873999999999999833, 0.0000000000000000000 ) ) ;
#60 = DIRECTION ( 'NONE',  ( 0.0000000000000000000, 1.000000000000000000, 0.0000000000000000000 ) ) ;
#61 =( NAMED_UNIT ( * ) PLANE_ANGLE_UNIT ( ) SI_UNIT ( $, .RADIAN. ) );
#62 = EDGE_LOOP ( 'NONE', ( #4 ) ) ;
#63 = EDGE_LOOP ( 'NONE', ( #112 ) ) ;
#64 = LENGTH_MEASURE_WITH_UNIT ( LENGTH_MEASURE( 0.02539999999999999897 ), #68 );
#65 = UNCERTAINTY_MEASURE_WITH_UNIT (LENGTH_MEASURE( 1.000000000000000082E-05 ), #56, 'distance_accuracy_value', 'NONE');
#66 = VERTEX_POINT ( 'NONE', #109 ) ;
#67 = PRODUCT_RELATED_PRODUCT_CATEGORY ( 'part', '', ( #97 ) ) ;
#68 =( LENGTH_UNIT ( ) NAMED_UNIT ( * ) SI_UNIT ( $, .METRE. ) );
#69 = FACE_OUTER_BOUND ( 'NONE', #9, .T. ) ;
#70 =( NAMED_UNIT ( * ) PLANE_ANGLE_UNIT ( ) SI_UNIT ( $, .RADIAN. ) );
#71 = DIRECTION ( 'NONE',  ( 0.0000000000000000000, 1.000000000000000000, 0.0000000000000000000 ) ) ;
#72 = DIRECTION ( 'NONE',  ( 0.0000000000000000000, 1.000000000000000000, 0.0000000000000000000 ) ) ;
#73 =( NAMED_UNIT ( * ) SI_UNIT ( $, .STERADIAN. ) SOLID_ANGLE_UNIT ( ) );
#74 = AXIS2_PLACEMENT_3D ( 'NONE', #2, #42, #11 ) ;
#75 = PRODUCT_DEFINITION_CONTEXT ( 'detailed design', #30, 'design' ) ;
#76 =( LENGTH_UNIT ( ) NAMED_UNIT ( * ) SI_UNIT ( $, .METRE. ) );
#77 = ADVANCED_FACE ( 'NONE', ( #128, #28 ), #55, .T. ) ;
#78 = UNCERTAINTY_MEASURE_WITH_UNIT (LENGTH_MEASURE( 1.000000000000000082E-05 ), #137, 'distance_accuracy_value', 'NONE');
#79 = DIRECTION ( 'NONE',  ( 0.0000000000000000000, 1.000000000000000000, 0.0000000000000000000 ) ) ;
#80 =( NAMED_UNIT ( * ) SI_UNIT ( $, .STERADIAN. ) SOLID_ANGLE_UNIT ( ) );
#81 = FACE_BOUND ( 'NONE', #111, .T. ) ;
#82 = DIMENSIONAL_EXPONENTS ( 1.000000000000000000, 0.0000000000000000000, 0.0000000000000000000, 0.0000000000000000000, 0.0000000000000000000, 0.0000000000000000000, 0.0000000000000000000 ) ;
#83 = APPLICATION_PROTOCOL_DEFINITION ( 'draft international standard', 'automotive_design', 1998, #30 ) ;
#84 =( NAMED_UNIT ( * ) PLANE_ANGLE_UNIT ( ) SI_UNIT ( $, .RADIAN. ) );
#85 = ADVANCED_BREP_SHAPE_REPRESENTATION ( 'am-4180 Lamprey Absolute Encoder Magnet Ring', ( #45, #74 ), #96 ) ;
#86 = DIRECTION ( 'NONE',  ( 0.0000000000000000000, 0.0000000000000000000, 1.000000000000000000 ) ) ;
#87 = VERTEX_POINT ( 'NONE', #102 ) ;
#88 = LENGTH_MEASURE_WITH_UNIT ( LENGTH_MEASURE( 0.02539999999999999897 ), #76 );
#89 = PRODUCT_DEFINITION ( 'UNKNOWN', '', #120, #75 ) ;
#90 = ORIENTED_EDGE ( 'NONE', *, *, #23, .T. ) ;
#91 = DIRECTION ( 'NONE',  ( 0.0000000000000000000, 0.0000000000000000000, -1.000000000000000000 ) ) ;
#92 = CARTESIAN_POINT ( 'NONE',  ( 0.0000000000000000000, 0.0000000000000000000, 0.0000000000000000000 ) ) ;
#93 = COLOUR_RGB ( '',0.1568627450980392135, 0.07843137254901960675, 0.0000000000000000000 ) ;
#94 = ORIENTED_EDGE ( 'NONE', *, *, #115, .F. ) ;
#95 = DIRECTION ( 'NONE',  ( 0.0000000000000000000, 1.000000000000000000, 0.0000000000000000000 ) ) ;
#96 =( GEOMETRIC_REPRESENTATION_CONTEXT ( 3 ) GLOBAL_UNCERTAINTY_ASSIGNED_CONTEXT ( ( #65 ) ) GLOBAL_UNIT_ASSIGNED_CONTEXT ( ( #56, #61, #80 ) ) REPRESENTATION_CONTEXT ( 'NONE', 'WORKASPACE' ) );
#97 = PRODUCT ( 'am-4180 Lamprey Absolute Encoder Magnet Ring', 'am-4180 Lamprey Absolute Encoder Magnet Ring', '', ( #138 ) ) ;
#98 = DIRECTION ( 'NONE',  ( 0.0000000000000000000, 1.000000000000000000, 0.0000000000000000000 ) ) ;
#99 = SURFACE_SIDE_STYLE ('',( #103 ) ) ;
#100 = ADVANCED_FACE ( 'NONE', ( #125, #81 ), #41, .F. ) ;
#101 = EDGE_LOOP ( 'NONE', ( #94 ) ) ;
#102 = CARTESIAN_POINT ( 'NONE',  ( 0.0000000000000000000, 0.1873999999999999833, 0.8150000000000000577 ) ) ;
#103 = SURFACE_STYLE_FILL_AREA ( #26 ) ;
#104 =( GEOMETRIC_REPRESENTATION_CONTEXT ( 3 ) GLOBAL_UNCERTAINTY_ASSIGNED_CONTEXT ( ( #35 ) ) GLOBAL_UNIT_ASSIGNED_CONTEXT ( ( #40, #84, #15 ) ) REPRESENTATION_CONTEXT ( 'NONE', 'WORKASPACE' ) );
#105 = SURFACE_STYLE_USAGE ( .BOTH. , #38 ) ;
#106 = CARTESIAN_POINT ( 'NONE',  ( 0.0000000000000000000, 0.0000000000000000000, 0.0000000000000000000 ) ) ;
#107 = DIRECTION ( 'NONE',  ( 0.0000000000000000000, -0.0000000000000000000, 1.000000000000000000 ) ) ;
#108 = DIRECTION ( 'NONE',  ( 0.0000000000000000000, 0.0000000000000000000, 1.000000000000000000 ) ) ;
#109 = CARTESIAN_POINT ( 'NONE',  ( 0.0000000000000000000, 0.0000000000000000000, 0.6150000000000001021 ) ) ;
#110 = CARTESIAN_POINT ( 'NONE',  ( 0.0000000000000000000, 0.1873999999999999833, 0.6150000000000001021 ) ) ;
#111 = EDGE_LOOP ( 'NONE', ( #1 ) ) ;
#112 = ORIENTED_EDGE ( 'NONE', *, *, #113, .F. ) ;
#113 = EDGE_CURVE ( 'NONE', #121, #121, #22, .T. ) ;
#114 = PRESENTATION_STYLE_ASSIGNMENT (( #119 ) ) ;
#115 = EDGE_CURVE ( 'NONE', #116, #116, #17, .T. ) ;
#116 = VERTEX_POINT ( 'NONE', #16 ) ;
#117 = FILL_AREA_STYLE_COLOUR ( '', #93 ) ;
#118 = CARTESIAN_POINT ( 'NONE',  ( 0.0000000000000000000, 0.1873999999999999833, 0.0000000000000000000 ) ) ;
#119 = SURFACE_STYLE_USAGE ( .BOTH. , #99 ) ;
#120 = PRODUCT_DEFINITION_FORMATION_WITH_SPECIFIED_SOURCE ( 'ANY', '', #97, .NOT_KNOWN. ) ;
#121 = VERTEX_POINT ( 'NONE', #110 ) ;
#122 = CARTESIAN_POINT ( 'NONE',  ( 0.0000000000000000000, 0.0000000000000000000, 0.0000000000000000000 ) ) ;
#123 = EDGE_LOOP ( 'NONE', ( #5 ) ) ;
#124 = ADVANCED_FACE ( 'NONE', ( #47, #58 ), #48, .T. ) ;
#125 = FACE_OUTER_BOUND ( 'NONE', #101, .T. ) ;
#126 = MECHANICAL_DESIGN_GEOMETRIC_PRESENTATION_REPRESENTATION (  '', ( #133 ), #57 ) ;
#127 = DIRECTION ( 'NONE',  ( -0.0000000000000000000, -1.000000000000000000, -0.0000000000000000000 ) ) ;
#128 = FACE_OUTER_BOUND ( 'NONE', #24, .T. ) ;
#129 = PRESENTATION_LAYER_ASSIGNMENT (  '', '', ( #133 ) ) ;
#130 = SURFACE_STYLE_FILL_AREA ( #29 ) ;
#131 = APPLICATION_PROTOCOL_DEFINITION ( 'draft international standard', 'automotive_design', 1998, #31 ) ;
#132 = DIRECTION ( 'NONE',  ( 0.0000000000000000000, 0.0000000000000000000, -1.000000000000000000 ) ) ;
#133 = STYLED_ITEM ( 'NONE', ( #114 ), #45 ) ;
#134 = COLOUR_RGB ( '',0.1568627450980392135, 0.07843137254901960675, 0.0000000000000000000 ) ;
#135 = AXIS2_PLACEMENT_3D ( 'NONE', #122, #95, #86 ) ;
#136 = DIRECTION ( 'NONE',  ( -0.0000000000000000000, -1.000000000000000000, -0.0000000000000000000 ) ) ;
#137 =( CONVERSION_BASED_UNIT ( 'INCH', #64 ) LENGTH_UNIT ( ) NAMED_UNIT ( #25 ) );
#138 = PRODUCT_CONTEXT ( 'NONE', #31, 'mechanical' ) ;
#139 = AXIS2_PLACEMENT_3D ( 'NONE', #46, #127, #91 ) ;
#140 = CIRCLE ( 'NONE', #135, 0.6150000000000001021 ) ;
#141 = DIRECTION ( 'NONE',  ( 0.0000000000000000000, 0.0000000000000000000, 1.000000000000000000 ) ) ;
#142 = AXIS2_PLACEMENT_3D ( 'NONE', #118, #72, #108 ) ;
#143 = CIRCLE ( 'NONE', #142, 0.8150000000000000577 ) ;
ENDSEC;
END-ISO-10303-21;
