ISO-10303-21;
HEADER;
FILE_DESCRIPTION (( 'STEP AP214' ),
    '1' );
FILE_NAME ('am-3948-375 500H x 375IN Spacer.STEP',
    '2020-03-02T18:53:03',
    ( '' ),
    ( '' ),
    'SwSTEP 2.0',
    'SolidWorks 2019',
    '' );
FILE_SCHEMA (( 'AUTOMOTIVE_DESIGN' ));
ENDSEC;

DATA;
#1 = CARTESIAN_POINT ( 'NONE',  ( 0.0000000000000000000, 0.0000000000000000000, 0.0000000000000000000 ) ) ;
#2 = ORIENTED_EDGE ( 'NONE', *, *, #74, .F. ) ;
#3 = VECTOR ( 'NONE', #73, 39.37007874015748854 ) ;
#4 = CARTESIAN_POINT ( 'NONE',  ( -0.1443375672974063217, -0.2499999999999999722, 0.3750000000000000555 ) ) ;
#5 = ORIENTED_EDGE ( 'NONE', *, *, #256, .F. ) ;
#6 = CARTESIAN_POINT ( 'NONE',  ( 0.2886751345948129210, -3.392667169346791278E-17, 0.3750000000000000555 ) ) ;
#7 = VERTEX_POINT ( 'NONE', #49 ) ;
#8 = EDGE_CURVE ( 'NONE', #54, #28, #51, .T. ) ;
#9 = DIRECTION ( 'NONE',  ( 0.5000000000000002220, -0.8660254037844383745, 0.0000000000000000000 ) ) ;
#10 = CARTESIAN_POINT ( 'NONE',  ( 0.1443375672974063217, 0.2500000000000000555, 0.3750000000000000555 ) ) ;
#11 =( NAMED_UNIT ( * ) PLANE_ANGLE_UNIT ( ) SI_UNIT ( $, .RADIAN. ) );
#12 = DIRECTION ( 'NONE',  ( 0.0000000000000000000, -0.0000000000000000000, -1.000000000000000000 ) ) ;
#13 = DIRECTION ( 'NONE',  ( -1.000000000000000000, 0.0000000000000000000, 0.0000000000000000000 ) ) ;
#14 = CARTESIAN_POINT ( 'NONE',  ( 0.1443375672974065438, -0.2499999999999999167, 0.3750000000000000555 ) ) ;
#15 = AXIS2_PLACEMENT_3D ( 'NONE', #107, #33, #158 ) ;
#16 = UNCERTAINTY_MEASURE_WITH_UNIT (LENGTH_MEASURE( 1.000000000000000082E-05 ), #32, 'distance_accuracy_value', 'NONE');
#17 = PRESENTATION_STYLE_ASSIGNMENT (( #207 ) ) ;
#18 = CARTESIAN_POINT ( 'NONE',  ( 0.2886751345948129210, -3.392667169346791278E-17, 0.0000000000000000000 ) ) ;
#19 = LINE ( 'NONE', #125, #132 ) ;
#20 = ORIENTED_EDGE ( 'NONE', *, *, #214, .F. ) ;
#21 = ORIENTED_EDGE ( 'NONE', *, *, #36, .T. ) ;
#22 = ORIENTED_EDGE ( 'NONE', *, *, #129, .T. ) ;
#23 = FACE_OUTER_BOUND ( 'NONE', #169, .T. ) ;
#24 = CARTESIAN_POINT ( 'NONE',  ( 0.1443375672974065438, -0.2499999999999999167, 0.3750000000000000555 ) ) ;
#25 = APPLICATION_CONTEXT ( 'automotive_design' ) ;
#26 = CARTESIAN_POINT ( 'NONE',  ( 0.0000000000000000000, 0.0000000000000000000, 0.3750000000000000555 ) ) ;
#27 = CARTESIAN_POINT ( 'NONE',  ( 0.2886751345948129210, -3.392667169346791278E-17, 0.3750000000000000555 ) ) ;
#28 = VERTEX_POINT ( 'NONE', #289 ) ;
#29 = EDGE_CURVE ( 'NONE', #28, #280, #96, .T. ) ;
#30 = STYLED_ITEM ( 'NONE', ( #17 ), #189 ) ;
#31 = AXIS2_PLACEMENT_3D ( 'NONE', #1, #236, #50 ) ;
#32 =( CONVERSION_BASED_UNIT ( 'INCH', #301 ) LENGTH_UNIT ( ) NAMED_UNIT ( #87 ) );
#33 = DIRECTION ( 'NONE',  ( 0.0000000000000000000, 0.0000000000000000000, 1.000000000000000000 ) ) ;
#34 = CARTESIAN_POINT ( 'NONE',  ( -0.1443375672974064050, 0.2500000000000000555, 0.3750000000000000555 ) ) ;
#35 = DIRECTION ( 'NONE',  ( 1.000000000000000000, 1.182924880895401264E-16, 0.0000000000000000000 ) ) ;
#36 = EDGE_CURVE ( 'NONE', #57, #7, #198, .T. ) ;
#37 = FACE_OUTER_BOUND ( 'NONE', #220, .T. ) ;
#38 = DIRECTION ( 'NONE',  ( -0.4999999999999998890, -0.8660254037844385966, 0.0000000000000000000 ) ) ;
#39 = APPLICATION_CONTEXT ( 'automotive_design' ) ;
#40 = DIRECTION ( 'NONE',  ( -0.0000000000000000000, -0.0000000000000000000, -1.000000000000000000 ) ) ;
#41 = VECTOR ( 'NONE', #156, 39.37007874015749564 ) ;
#42 = EDGE_LOOP ( 'NONE', ( #234 ) ) ;
#43 = EDGE_LOOP ( 'NONE', ( #2 ) ) ;
#44 = PLANE ( 'NONE',  #286 ) ;
#45 = CLOSED_SHELL ( 'NONE', ( #120, #250, #227, #210, #177, #139, #284, #113, #157 ) ) ;
#46 = EDGE_LOOP ( 'NONE', ( #115, #283, #265, #143 ) ) ;
#47 = CARTESIAN_POINT ( 'NONE',  ( -0.1443375672974063217, -0.2499999999999999722, 0.0000000000000000000 ) ) ;
#48 = ORIENTED_EDGE ( 'NONE', *, *, #219, .F. ) ;
#49 = CARTESIAN_POINT ( 'NONE',  ( -0.2886751345948128655, 6.809993419335529712E-17, 0.3750000000000000555 ) ) ;
#50 = DIRECTION ( 'NONE',  ( 1.000000000000000000, 0.0000000000000000000, 0.0000000000000000000 ) ) ;
#51 = LINE ( 'NONE', #24, #185 ) ;
#52 = CARTESIAN_POINT ( 'NONE',  ( 0.1443375672974063217, 0.2500000000000000555, 0.0000000000000000000 ) ) ;
#53 = VECTOR ( 'NONE', #128, 39.37007874015749564 ) ;
#54 = VERTEX_POINT ( 'NONE', #263 ) ;
#55 = DIRECTION ( 'NONE',  ( 0.4999999999999998890, 0.8660254037844385966, 0.0000000000000000000 ) ) ;
#56 = VERTEX_POINT ( 'NONE', #4 ) ;
#57 = VERTEX_POINT ( 'NONE', #150 ) ;
#58 = FILL_AREA_STYLE ('',( #155 ) ) ;
#59 = LINE ( 'NONE', #295, #118 ) ;
#60 = DIRECTION ( 'NONE',  ( 0.8660254037844384856, 0.5000000000000003331, -0.0000000000000000000 ) ) ;
#61 = AXIS2_PLACEMENT_3D ( 'NONE', #291, #202, #148 ) ;
#62 = DIRECTION ( 'NONE',  ( 1.000000000000000000, 1.182924880895401264E-16, 0.0000000000000000000 ) ) ;
#63 = VECTOR ( 'NONE', #112, 39.37007874015748143 ) ;
#64 = LINE ( 'NONE', #83, #266 ) ;
#65 =( CONVERSION_BASED_UNIT ( 'INCH', #187 ) LENGTH_UNIT ( ) NAMED_UNIT ( #110 ) );
#66 = VERTEX_POINT ( 'NONE', #211 ) ;
#67 = VERTEX_POINT ( 'NONE', #47 ) ;
#68 = ORIENTED_EDGE ( 'NONE', *, *, #29, .T. ) ;
#69 = DIRECTION ( 'NONE',  ( -0.5000000000000002220, 0.8660254037844383745, 0.0000000000000000000 ) ) ;
#70 = MECHANICAL_DESIGN_GEOMETRIC_PRESENTATION_REPRESENTATION (  '', ( #30 ), #259 ) ;
#71 = ORIENTED_EDGE ( 'NONE', *, *, #254, .F. ) ;
#72 = ORIENTED_EDGE ( 'NONE', *, *, #104, .F. ) ;
#73 = DIRECTION ( 'NONE',  ( -0.5000000000000000000, -0.8660254037844385966, 0.0000000000000000000 ) ) ;
#74 = EDGE_CURVE ( 'NONE', #191, #191, #181, .T. ) ;
#75 = PLANE ( 'NONE',  #109 ) ;
#76 = AXIS2_PLACEMENT_3D ( 'NONE', #277, #251, #225 ) ;
#77 = ORIENTED_EDGE ( 'NONE', *, *, #142, .F. ) ;
#78 = AXIS2_PLACEMENT_3D ( 'NONE', #102, #248, #204 ) ;
#79 = CARTESIAN_POINT ( 'NONE',  ( -0.2886751345948128655, 6.809993419335529712E-17, 0.3750000000000000555 ) ) ;
#80 = PRODUCT_DEFINITION_FORMATION_WITH_SPECIFIED_SOURCE ( 'ANY', '', #188, .NOT_KNOWN. ) ;
#81 = LINE ( 'NONE', #14, #123 ) ;
#82 = DIRECTION ( 'NONE',  ( -1.000000000000000000, 0.0000000000000000000, 0.0000000000000000000 ) ) ;
#83 = CARTESIAN_POINT ( 'NONE',  ( 0.1443375672974063217, 0.2500000000000000555, 0.3750000000000000555 ) ) ;
#84 = PRODUCT_DEFINITION_CONTEXT ( 'detailed design', #39, 'design' ) ;
#85 = SURFACE_SIDE_STYLE ('',( #303 ) ) ;
#86 = EDGE_CURVE ( 'NONE', #280, #90, #168, .T. ) ;
#87 = DIMENSIONAL_EXPONENTS ( 1.000000000000000000, 0.0000000000000000000, 0.0000000000000000000, 0.0000000000000000000, 0.0000000000000000000, 0.0000000000000000000, 0.0000000000000000000 ) ;
#88 =( NAMED_UNIT ( * ) PLANE_ANGLE_UNIT ( ) SI_UNIT ( $, .RADIAN. ) );
#89 = APPLICATION_PROTOCOL_DEFINITION ( 'draft international standard', 'automotive_design', 1998, #25 ) ;
#90 = VERTEX_POINT ( 'NONE', #52 ) ;
#91 = VECTOR ( 'NONE', #182, 39.37007874015748143 ) ;
#92 = ORIENTED_EDGE ( 'NONE', *, *, #256, .T. ) ;
#93 = PRODUCT_DEFINITION ( 'UNKNOWN', '', #80, #84 ) ;
#94 = LINE ( 'NONE', #260, #149 ) ;
#95 = CARTESIAN_POINT ( 'NONE',  ( 0.2886751345948129210, -3.392667169346791278E-17, 0.0000000000000000000 ) ) ;
#96 = LINE ( 'NONE', #285, #136 ) ;
#97 = DIRECTION ( 'NONE',  ( -0.5000000000000000000, -0.8660254037844385966, 0.0000000000000000000 ) ) ;
#98 = ORIENTED_EDGE ( 'NONE', *, *, #36, .F. ) ;
#99 = AXIS2_PLACEMENT_3D ( 'NONE', #223, #60, #69 ) ;
#100 = CARTESIAN_POINT ( 'NONE',  ( -0.2886751345948128655, 6.809993419335529712E-17, 0.0000000000000000000 ) ) ;
#101 = LINE ( 'NONE', #304, #252 ) ;
#102 = CARTESIAN_POINT ( 'NONE',  ( -0.1443375672974063217, -0.2499999999999999722, 0.3750000000000000555 ) ) ;
#103 = CARTESIAN_POINT ( 'NONE',  ( 0.0000000000000000000, 0.0000000000000000000, 0.3750000000000000555 ) ) ;
#104 = EDGE_CURVE ( 'NONE', #56, #67, #94, .T. ) ;
#105 = STYLED_ITEM ( 'NONE', ( #255 ), #296 ) ;
#106 = DIRECTION ( 'NONE',  ( -0.0000000000000000000, -0.0000000000000000000, -1.000000000000000000 ) ) ;
#107 = CARTESIAN_POINT ( 'NONE',  ( 0.0000000000000000000, 0.0000000000000000000, 0.0000000000000000000 ) ) ;
#108 =( LENGTH_UNIT ( ) NAMED_UNIT ( * ) SI_UNIT ( $, .METRE. ) );
#109 = AXIS2_PLACEMENT_3D ( 'NONE', #10, #180, #12 ) ;
#110 = DIMENSIONAL_EXPONENTS ( 1.000000000000000000, 0.0000000000000000000, 0.0000000000000000000, 0.0000000000000000000, 0.0000000000000000000, 0.0000000000000000000, 0.0000000000000000000 ) ;
#111 = DIRECTION ( 'NONE',  ( 0.5000000000000002220, -0.8660254037844384856, 0.0000000000000000000 ) ) ;
#112 = DIRECTION ( 'NONE',  ( -0.0000000000000000000, -0.0000000000000000000, -1.000000000000000000 ) ) ;
#113 = ADVANCED_FACE ( 'NONE', ( #237 ), #152, .T. ) ;
#114 = ORIENTED_EDGE ( 'NONE', *, *, #242, .T. ) ;
#115 = ORIENTED_EDGE ( 'NONE', *, *, #281, .F. ) ;
#116 =( LENGTH_UNIT ( ) NAMED_UNIT ( * ) SI_UNIT ( $, .METRE. ) );
#117 = LINE ( 'NONE', #27, #306 ) ;
#118 = VECTOR ( 'NONE', #97, 39.37007874015748854 ) ;
#119 = FACE_BOUND ( 'NONE', #179, .T. ) ;
#120 = ADVANCED_FACE ( 'NONE', ( #171, #119 ), #173, .T. ) ;
#121 = EDGE_LOOP ( 'NONE', ( #176 ) ) ;
#122 = EDGE_LOOP ( 'NONE', ( #151, #71, #92, #292 ) ) ;
#123 = VECTOR ( 'NONE', #224, 39.37007874015748854 ) ;
#124 = DIRECTION ( 'NONE',  ( 0.5000000000000002220, -0.8660254037844384856, 0.0000000000000000000 ) ) ;
#125 = CARTESIAN_POINT ( 'NONE',  ( 0.1443375672974063217, 0.2500000000000000555, 0.0000000000000000000 ) ) ;
#126 = CARTESIAN_POINT ( 'NONE',  ( 0.0000000000000000000, 0.0000000000000000000, 0.0000000000000000000 ) ) ;
#127 =( NAMED_UNIT ( * ) SI_UNIT ( $, .STERADIAN. ) SOLID_ANGLE_UNIT ( ) );
#128 = DIRECTION ( 'NONE',  ( -0.5000000000000002220, 0.8660254037844384856, 0.0000000000000000000 ) ) ;
#129 = EDGE_CURVE ( 'NONE', #165, #280, #117, .T. ) ;
#130 = CIRCLE ( 'NONE', #299, 0.3937007874015748254 ) ;
#131 = PLANE ( 'NONE',  #76 ) ;
#132 = VECTOR ( 'NONE', #13, 39.37007874015748143 ) ;
#133 = FACE_BOUND ( 'NONE', #147, .T. ) ;
#134 = FACE_OUTER_BOUND ( 'NONE', #192, .T. ) ;
#135 = SURFACE_STYLE_USAGE ( .BOTH. , #137 ) ;
#136 = VECTOR ( 'NONE', #55, 39.37007874015748854 ) ;
#137 = SURFACE_SIDE_STYLE ('',( #228 ) ) ;
#138 = ORIENTED_EDGE ( 'NONE', *, *, #86, .F. ) ;
#139 = ADVANCED_FACE ( 'NONE', ( #267 ), #75, .T. ) ;
#140 = VERTEX_POINT ( 'NONE', #100 ) ;
#141 = VECTOR ( 'NONE', #62, 39.37007874015748143 ) ;
#142 = EDGE_CURVE ( 'NONE', #288, #140, #59, .T. ) ;
#143 = ORIENTED_EDGE ( 'NONE', *, *, #104, .T. ) ;
#144 =( CONVERSION_BASED_UNIT ( 'INCH', #262 ) LENGTH_UNIT ( ) NAMED_UNIT ( #194 ) );
#145 = ORIENTED_EDGE ( 'NONE', *, *, #74, .T. ) ;
#146 = PRODUCT_CONTEXT ( 'NONE', #25, 'mechanical' ) ;
#147 = EDGE_LOOP ( 'NONE', ( #68, #212, #257, #311, #221, #258 ) ) ;
#148 = DIRECTION ( 'NONE',  ( 1.000000000000000000, 0.0000000000000000000, -0.0000000000000000000 ) ) ;
#149 = VECTOR ( 'NONE', #287, 39.37007874015748143 ) ;
#150 = CARTESIAN_POINT ( 'NONE',  ( -0.1443375672974064050, 0.2500000000000000555, 0.3750000000000000555 ) ) ;
#151 = ORIENTED_EDGE ( 'NONE', *, *, #302, .F. ) ;
#152 = PLANE ( 'NONE',  #99 ) ;
#153 = VERTEX_POINT ( 'NONE', #245 ) ;
#154 = AXIS2_PLACEMENT_3D ( 'NONE', #160, #184, #38 ) ;
#155 = FILL_AREA_STYLE_COLOUR ( '', #167 ) ;
#156 = DIRECTION ( 'NONE',  ( -0.5000000000000002220, 0.8660254037844384856, 0.0000000000000000000 ) ) ;
#157 = ADVANCED_FACE ( 'NONE', ( #298 ), #196, .T. ) ;
#158 = DIRECTION ( 'NONE',  ( 1.000000000000000000, 0.0000000000000000000, -0.0000000000000000000 ) ) ;
#159 = DIRECTION ( 'NONE',  ( -1.000000000000000000, 0.0000000000000000000, 0.0000000000000000000 ) ) ;
#160 = CARTESIAN_POINT ( 'NONE',  ( 0.1443375672974065438, -0.2499999999999999167, 0.3750000000000000555 ) ) ;
#161 = LINE ( 'NONE', #278, #63 ) ;
#162 = FILL_AREA_STYLE ('',( #190 ) ) ;
#163 = EDGE_CURVE ( 'NONE', #7, #56, #270, .T. ) ;
#164 = CARTESIAN_POINT ( 'NONE',  ( 0.3937007874015748254, 0.0000000000000000000, 0.3750000000000000555 ) ) ;
#165 = VERTEX_POINT ( 'NONE', #6 ) ;
#166 = ORIENTED_EDGE ( 'NONE', *, *, #29, .F. ) ;
#167 = COLOUR_RGB ( '',0.2980392156862745057, 0.2980392156862745057, 0.2980392156862745057 ) ;
#168 = LINE ( 'NONE', #95, #41 ) ;
#169 = EDGE_LOOP ( 'NONE', ( #138, #243, #175, #309 ) ) ;
#170 = SHAPE_DEFINITION_REPRESENTATION ( #307, #296 ) ;
#171 = FACE_OUTER_BOUND ( 'NONE', #195, .T. ) ;
#172 = ORIENTED_EDGE ( 'NONE', *, *, #163, .F. ) ;
#173 = PLANE ( 'NONE',  #61 ) ;
#174 = EDGE_CURVE ( 'NONE', #66, #66, #130, .T. ) ;
#175 = ORIENTED_EDGE ( 'NONE', *, *, #247, .T. ) ;
#176 = ORIENTED_EDGE ( 'NONE', *, *, #174, .T. ) ;
#177 = ADVANCED_FACE ( 'NONE', ( #23 ), #44, .T. ) ;
#178 = CARTESIAN_POINT ( 'NONE',  ( -0.1443375672974064050, 0.2500000000000000555, 0.3750000000000000555 ) ) ;
#179 = EDGE_LOOP ( 'NONE', ( #215, #48, #203, #172, #98, #5 ) ) ;
#180 = DIRECTION ( 'NONE',  ( 0.0000000000000000000, -1.000000000000000000, 0.0000000000000000000 ) ) ;
#181 = CIRCLE ( 'NONE', #218, 0.3937007874015748254 ) ;
#182 = DIRECTION ( 'NONE',  ( -0.0000000000000000000, -0.0000000000000000000, -1.000000000000000000 ) ) ;
#183 = FACE_OUTER_BOUND ( 'NONE', #43, .T. ) ;
#184 = DIRECTION ( 'NONE',  ( -0.8660254037844387076, 0.4999999999999999445, 0.0000000000000000000 ) ) ;
#185 = VECTOR ( 'NONE', #199, 39.37007874015748143 ) ;
#186 = CARTESIAN_POINT ( 'NONE',  ( 0.1443375672974063217, 0.2500000000000000555, 0.3750000000000000555 ) ) ;
#187 = LENGTH_MEASURE_WITH_UNIT ( LENGTH_MEASURE( 0.02539999999999999897 ), #231 );
#188 = PRODUCT ( 'am-3948-375 500H x 375IN Spacer', 'am-3948-375 500H x 375IN Spacer', '', ( #146 ) ) ;
#189 = MANIFOLD_SOLID_BREP ( 'Boss-Extrude1', #45 ) ;
#190 = FILL_AREA_STYLE_COLOUR ( '', #279 ) ;
#191 = VERTEX_POINT ( 'NONE', #164 ) ;
#192 = EDGE_LOOP ( 'NONE', ( #77, #20, #21, #290 ) ) ;
#193 = PRESENTATION_LAYER_ASSIGNMENT (  '', '', ( #105 ) ) ;
#194 = DIMENSIONAL_EXPONENTS ( 1.000000000000000000, 0.0000000000000000000, 0.0000000000000000000, 0.0000000000000000000, 0.0000000000000000000, 0.0000000000000000000, 0.0000000000000000000 ) ;
#195 = EDGE_LOOP ( 'NONE', ( #145 ) ) ;
#196 = PLANE ( 'NONE',  #78 ) ;
#197 =( NAMED_UNIT ( * ) PLANE_ANGLE_UNIT ( ) SI_UNIT ( $, .RADIAN. ) );
#198 = LINE ( 'NONE', #178, #3 ) ;
#199 = DIRECTION ( 'NONE',  ( -0.0000000000000000000, -0.0000000000000000000, -1.000000000000000000 ) ) ;
#200 = DIRECTION ( 'NONE',  ( 0.0000000000000000000, 0.0000000000000000000, 1.000000000000000000 ) ) ;
#201 = EDGE_CURVE ( 'NONE', #67, #28, #246, .T. ) ;
#202 = DIRECTION ( 'NONE',  ( 0.0000000000000000000, 0.0000000000000000000, 1.000000000000000000 ) ) ;
#203 = ORIENTED_EDGE ( 'NONE', *, *, #242, .F. ) ;
#204 = DIRECTION ( 'NONE',  ( -1.000000000000000000, -1.182924880895401264E-16, 0.0000000000000000000 ) ) ;
#205 = VECTOR ( 'NONE', #124, 39.37007874015749564 ) ;
#206 = UNCERTAINTY_MEASURE_WITH_UNIT (LENGTH_MEASURE( 1.000000000000000082E-05 ), #144, 'distance_accuracy_value', 'NONE');
#207 = SURFACE_STYLE_USAGE ( .BOTH. , #85 ) ;
#208 = PRESENTATION_LAYER_ASSIGNMENT (  '', '', ( #30 ) ) ;
#209 = CARTESIAN_POINT ( 'NONE',  ( -0.1443375672974064050, 0.2500000000000000555, 0.0000000000000000000 ) ) ;
#210 = ADVANCED_FACE ( 'NONE', ( #37 ), #276, .T. ) ;
#211 = CARTESIAN_POINT ( 'NONE',  ( 0.3937007874015748254, 0.0000000000000000000, 0.0000000000000000000 ) ) ;
#212 = ORIENTED_EDGE ( 'NONE', *, *, #86, .T. ) ;
#213 = VECTOR ( 'NONE', #111, 39.37007874015749564 ) ;
#214 = EDGE_CURVE ( 'NONE', #57, #288, #269, .T. ) ;
#215 = ORIENTED_EDGE ( 'NONE', *, *, #247, .F. ) ;
#216 =( NAMED_UNIT ( * ) SI_UNIT ( $, .STERADIAN. ) SOLID_ANGLE_UNIT ( ) );
#217 = APPLICATION_PROTOCOL_DEFINITION ( 'draft international standard', 'automotive_design', 1998, #39 ) ;
#218 = AXIS2_PLACEMENT_3D ( 'NONE', #26, #264, #241 ) ;
#219 = EDGE_CURVE ( 'NONE', #54, #165, #81, .T. ) ;
#220 = EDGE_LOOP ( 'NONE', ( #166, #222, #261, #22 ) ) ;
#221 = ORIENTED_EDGE ( 'NONE', *, *, #281, .T. ) ;
#222 = ORIENTED_EDGE ( 'NONE', *, *, #8, .F. ) ;
#223 = CARTESIAN_POINT ( 'NONE',  ( -0.2886751345948128655, 6.809993419335529712E-17, 0.3750000000000000555 ) ) ;
#224 = DIRECTION ( 'NONE',  ( 0.4999999999999998890, 0.8660254037844385966, 0.0000000000000000000 ) ) ;
#225 = DIRECTION ( 'NONE',  ( 0.5000000000000000000, 0.8660254037844385966, 0.0000000000000000000 ) ) ;
#226 = AXIS2_PLACEMENT_3D ( 'NONE', #103, #40, #159 ) ;
#227 = ADVANCED_FACE ( 'NONE', ( #183, #300 ), #244, .T. ) ;
#228 = SURFACE_STYLE_FILL_AREA ( #162 ) ;
#229 = LINE ( 'NONE', #272, #53 ) ;
#230 =( NAMED_UNIT ( * ) SI_UNIT ( $, .STERADIAN. ) SOLID_ANGLE_UNIT ( ) );
#231 =( LENGTH_UNIT ( ) NAMED_UNIT ( * ) SI_UNIT ( $, .METRE. ) );
#232 = ORIENTED_EDGE ( 'NONE', *, *, #201, .F. ) ;
#233 = LINE ( 'NONE', #253, #213 ) ;
#234 = ORIENTED_EDGE ( 'NONE', *, *, #174, .F. ) ;
#235 = DIRECTION ( 'NONE',  ( -0.8660254037844384856, -0.5000000000000003331, 0.0000000000000000000 ) ) ;
#236 = DIRECTION ( 'NONE',  ( 0.0000000000000000000, 0.0000000000000000000, 1.000000000000000000 ) ) ;
#237 = FACE_OUTER_BOUND ( 'NONE', #46, .T. ) ;
#238 =( GEOMETRIC_REPRESENTATION_CONTEXT ( 3 ) GLOBAL_UNCERTAINTY_ASSIGNED_CONTEXT ( ( #206 ) ) GLOBAL_UNIT_ASSIGNED_CONTEXT ( ( #144, #197, #216 ) ) REPRESENTATION_CONTEXT ( 'NONE', 'WORKASPACE' ) );
#239 = DIRECTION ( 'NONE',  ( -0.0000000000000000000, -0.0000000000000000000, -1.000000000000000000 ) ) ;
#240 = EDGE_LOOP ( 'NONE', ( #232, #72, #114, #268 ) ) ;
#241 = DIRECTION ( 'NONE',  ( 1.000000000000000000, 0.0000000000000000000, 0.0000000000000000000 ) ) ;
#242 = EDGE_CURVE ( 'NONE', #56, #54, #101, .T. ) ;
#243 = ORIENTED_EDGE ( 'NONE', *, *, #129, .F. ) ;
#244 = CYLINDRICAL_SURFACE ( 'NONE', #226, 0.3937007874015748254 ) ;
#245 = CARTESIAN_POINT ( 'NONE',  ( 0.1443375672974063217, 0.2500000000000000555, 0.3750000000000000555 ) ) ;
#246 = LINE ( 'NONE', #273, #141 ) ;
#247 = EDGE_CURVE ( 'NONE', #165, #153, #229, .T. ) ;
#248 = DIRECTION ( 'NONE',  ( -1.182924880895401264E-16, 1.000000000000000000, 0.0000000000000000000 ) ) ;
#249 = FACE_OUTER_BOUND ( 'NONE', #42, .T. ) ;
#250 = ADVANCED_FACE ( 'NONE', ( #249, #133 ), #297, .F. ) ;
#251 = DIRECTION ( 'NONE',  ( 0.8660254037844387076, -0.5000000000000001110, 0.0000000000000000000 ) ) ;
#252 = VECTOR ( 'NONE', #35, 39.37007874015748143 ) ;
#253 = CARTESIAN_POINT ( 'NONE',  ( -0.2886751345948128655, 6.809993419335529712E-17, 0.0000000000000000000 ) ) ;
#254 = EDGE_CURVE ( 'NONE', #153, #90, #274, .T. ) ;
#255 = PRESENTATION_STYLE_ASSIGNMENT (( #135 ) ) ;
#256 = EDGE_CURVE ( 'NONE', #153, #57, #64, .T. ) ;
#257 = ORIENTED_EDGE ( 'NONE', *, *, #302, .T. ) ;
#258 = ORIENTED_EDGE ( 'NONE', *, *, #201, .T. ) ;
#259 =( GEOMETRIC_REPRESENTATION_CONTEXT ( 3 ) GLOBAL_UNCERTAINTY_ASSIGNED_CONTEXT ( ( #16 ) ) GLOBAL_UNIT_ASSIGNED_CONTEXT ( ( #32, #11, #127 ) ) REPRESENTATION_CONTEXT ( 'NONE', 'WORKASPACE' ) );
#260 = CARTESIAN_POINT ( 'NONE',  ( -0.1443375672974063217, -0.2499999999999999722, 0.3750000000000000555 ) ) ;
#261 = ORIENTED_EDGE ( 'NONE', *, *, #219, .T. ) ;
#262 = LENGTH_MEASURE_WITH_UNIT ( LENGTH_MEASURE( 0.02539999999999999897 ), #116 );
#263 = CARTESIAN_POINT ( 'NONE',  ( 0.1443375672974065438, -0.2499999999999999167, 0.3750000000000000555 ) ) ;
#264 = DIRECTION ( 'NONE',  ( 0.0000000000000000000, 0.0000000000000000000, 1.000000000000000000 ) ) ;
#265 = ORIENTED_EDGE ( 'NONE', *, *, #163, .T. ) ;
#266 = VECTOR ( 'NONE', #82, 39.37007874015748143 ) ;
#267 = FACE_OUTER_BOUND ( 'NONE', #122, .T. ) ;
#268 = ORIENTED_EDGE ( 'NONE', *, *, #8, .T. ) ;
#269 = LINE ( 'NONE', #34, #305 ) ;
#270 = LINE ( 'NONE', #79, #205 ) ;
#271 = PRODUCT_RELATED_PRODUCT_CATEGORY ( 'part', '', ( #188 ) ) ;
#272 = CARTESIAN_POINT ( 'NONE',  ( 0.2886751345948129210, -3.392667169346791278E-17, 0.3750000000000000555 ) ) ;
#273 = CARTESIAN_POINT ( 'NONE',  ( -0.1443375672974063217, -0.2499999999999999722, 0.0000000000000000000 ) ) ;
#274 = LINE ( 'NONE', #186, #91 ) ;
#275 = UNCERTAINTY_MEASURE_WITH_UNIT (LENGTH_MEASURE( 1.000000000000000082E-05 ), #65, 'distance_accuracy_value', 'NONE');
#276 = PLANE ( 'NONE',  #154 ) ;
#277 = CARTESIAN_POINT ( 'NONE',  ( -0.1443375672974064050, 0.2500000000000000555, 0.3750000000000000555 ) ) ;
#278 = CARTESIAN_POINT ( 'NONE',  ( -0.2886751345948128655, 6.809993419335529712E-17, 0.3750000000000000555 ) ) ;
#279 = COLOUR_RGB ( '',0.2980392156862745057, 0.2980392156862745057, 0.2980392156862745057 ) ;
#280 = VERTEX_POINT ( 'NONE', #18 ) ;
#281 = EDGE_CURVE ( 'NONE', #140, #67, #233, .T. ) ;
#282 = DIRECTION ( 'NONE',  ( 1.000000000000000000, 0.0000000000000000000, 0.0000000000000000000 ) ) ;
#283 = ORIENTED_EDGE ( 'NONE', *, *, #308, .F. ) ;
#284 = ADVANCED_FACE ( 'NONE', ( #134 ), #131, .T. ) ;
#285 = CARTESIAN_POINT ( 'NONE',  ( 0.1443375672974065438, -0.2499999999999999167, 0.0000000000000000000 ) ) ;
#286 = AXIS2_PLACEMENT_3D ( 'NONE', #294, #235, #9 ) ;
#287 = DIRECTION ( 'NONE',  ( -0.0000000000000000000, -0.0000000000000000000, -1.000000000000000000 ) ) ;
#288 = VERTEX_POINT ( 'NONE', #209 ) ;
#289 = CARTESIAN_POINT ( 'NONE',  ( 0.1443375672974065438, -0.2499999999999999167, 0.0000000000000000000 ) ) ;
#290 = ORIENTED_EDGE ( 'NONE', *, *, #308, .T. ) ;
#291 = CARTESIAN_POINT ( 'NONE',  ( 0.0000000000000000000, 0.0000000000000000000, 0.3750000000000000555 ) ) ;
#292 = ORIENTED_EDGE ( 'NONE', *, *, #214, .T. ) ;
#293 =( GEOMETRIC_REPRESENTATION_CONTEXT ( 3 ) GLOBAL_UNCERTAINTY_ASSIGNED_CONTEXT ( ( #275 ) ) GLOBAL_UNIT_ASSIGNED_CONTEXT ( ( #65, #88, #230 ) ) REPRESENTATION_CONTEXT ( 'NONE', 'WORKASPACE' ) );
#294 = CARTESIAN_POINT ( 'NONE',  ( 0.2886751345948129210, -3.392667169346791278E-17, 0.3750000000000000555 ) ) ;
#295 = CARTESIAN_POINT ( 'NONE',  ( -0.1443375672974064050, 0.2500000000000000555, 0.0000000000000000000 ) ) ;
#296 = ADVANCED_BREP_SHAPE_REPRESENTATION ( 'am-3948-375 500H x 375IN Spacer', ( #189, #31 ), #293 ) ;
#297 = PLANE ( 'NONE',  #15 ) ;
#298 = FACE_OUTER_BOUND ( 'NONE', #240, .T. ) ;
#299 = AXIS2_PLACEMENT_3D ( 'NONE', #126, #200, #282 ) ;
#300 = FACE_OUTER_BOUND ( 'NONE', #121, .T. ) ;
#301 = LENGTH_MEASURE_WITH_UNIT ( LENGTH_MEASURE( 0.02539999999999999897 ), #108 );
#302 = EDGE_CURVE ( 'NONE', #90, #288, #19, .T. ) ;
#303 = SURFACE_STYLE_FILL_AREA ( #58 ) ;
#304 = CARTESIAN_POINT ( 'NONE',  ( -0.1443375672974063217, -0.2499999999999999722, 0.3750000000000000555 ) ) ;
#305 = VECTOR ( 'NONE', #106, 39.37007874015748143 ) ;
#306 = VECTOR ( 'NONE', #239, 39.37007874015748143 ) ;
#307 = PRODUCT_DEFINITION_SHAPE ( 'NONE', 'NONE',  #93 ) ;
#308 = EDGE_CURVE ( 'NONE', #7, #140, #161, .T. ) ;
#309 = ORIENTED_EDGE ( 'NONE', *, *, #254, .T. ) ;
#310 = MECHANICAL_DESIGN_GEOMETRIC_PRESENTATION_REPRESENTATION (  '', ( #105 ), #238 ) ;
#311 = ORIENTED_EDGE ( 'NONE', *, *, #142, .T. ) ;
ENDSEC;
END-ISO-10303-21;
