ISO-10303-21;
HEADER;
FILE_DESCRIPTION (( 'STEP AP214' ),
    '1' );
FILE_NAME ('am-3947-375 375H x 375IN Spacer.STEP',
    '2020-03-02T18:53:49',
    ( '' ),
    ( '' ),
    'SwSTEP 2.0',
    'SolidWorks 2019',
    '' );
FILE_SCHEMA (( 'AUTOMOTIVE_DESIGN' ));
ENDSEC;

DATA;
#1 = DIRECTION ( 'NONE',  ( 1.000000000000000000, 0.0000000000000000000, -0.0000000000000000000 ) ) ;
#2 = AXIS2_PLACEMENT_3D ( 'NONE', #292, #290, #287 ) ;
#3 = FACE_OUTER_BOUND ( 'NONE', #212, .T. ) ;
#4 = ORIENTED_EDGE ( 'NONE', *, *, #102, .F. ) ;
#5 = DIRECTION ( 'NONE',  ( -0.5000000000000001110, 0.8660254037844385966, 0.0000000000000000000 ) ) ;
#6 = VECTOR ( 'NONE', #301, 39.37007874015748143 ) ;
#7 = CARTESIAN_POINT ( 'NONE',  ( 0.2165063509461097047, -7.084637897906329745E-17, 0.3750000000000000555 ) ) ;
#8 = ADVANCED_FACE ( 'NONE', ( #209, #118 ), #241, .T. ) ;
#9 = EDGE_LOOP ( 'NONE', ( #280, #127, #122, #68, #299, #25 ) ) ;
#10 = LINE ( 'NONE', #7, #309 ) ;
#11 = DIRECTION ( 'NONE',  ( -1.000000000000000000, 0.0000000000000000000, 0.0000000000000000000 ) ) ;
#12 = CIRCLE ( 'NONE', #78, 0.3937007874015748254 ) ;
#13 = CARTESIAN_POINT ( 'NONE',  ( 0.1082531754730547829, 0.1875000000000000555, 0.3750000000000000555 ) ) ;
#14 = LINE ( 'NONE', #111, #63 ) ;
#15 =( NAMED_UNIT ( * ) SI_UNIT ( $, .STERADIAN. ) SOLID_ANGLE_UNIT ( ) );
#16 = DIRECTION ( 'NONE',  ( 0.5000000000000002220, 0.8660254037844383745, 0.0000000000000000000 ) ) ;
#17 = ORIENTED_EDGE ( 'NONE', *, *, #81, .F. ) ;
#18 = EDGE_CURVE ( 'NONE', #245, #121, #177, .T. ) ;
#19 = DIRECTION ( 'NONE',  ( 0.0000000000000000000, -0.0000000000000000000, -1.000000000000000000 ) ) ;
#20 = VECTOR ( 'NONE', #151, 39.37007874015748854 ) ;
#21 = VERTEX_POINT ( 'NONE', #188 ) ;
#22 = EDGE_CURVE ( 'NONE', #58, #266, #87, .T. ) ;
#23 = DIRECTION ( 'NONE',  ( 0.8660254037844384856, -0.5000000000000003331, 0.0000000000000000000 ) ) ;
#24 = ORIENTED_EDGE ( 'NONE', *, *, #260, .F. ) ;
#25 = ORIENTED_EDGE ( 'NONE', *, *, #275, .T. ) ;
#26 = VERTEX_POINT ( 'NONE', #300 ) ;
#27 = LINE ( 'NONE', #13, #206 ) ;
#28 = UNCERTAINTY_MEASURE_WITH_UNIT (LENGTH_MEASURE( 1.000000000000000082E-05 ), #143, 'distance_accuracy_value', 'NONE');
#29 = DIRECTION ( 'NONE',  ( 0.5000000000000003331, -0.8660254037844383745, 0.0000000000000000000 ) ) ;
#30 = ORIENTED_EDGE ( 'NONE', *, *, #18, .T. ) ;
#31 = ADVANCED_FACE ( 'NONE', ( #297 ), #296, .T. ) ;
#32 = CARTESIAN_POINT ( 'NONE',  ( -0.2165063509461097047, 3.211045840221350913E-17, 0.3750000000000000555 ) ) ;
#33 = PRESENTATION_LAYER_ASSIGNMENT (  '', '', ( #278 ) ) ;
#34 = LINE ( 'NONE', #32, #119 ) ;
#35 =( NAMED_UNIT ( * ) PLANE_ANGLE_UNIT ( ) SI_UNIT ( $, .RADIAN. ) );
#36 = LINE ( 'NONE', #235, #229 ) ;
#37 =( CONVERSION_BASED_UNIT ( 'INCH', #59 ) LENGTH_UNIT ( ) NAMED_UNIT ( #202 ) );
#38 = DIRECTION ( 'NONE',  ( -0.0000000000000000000, -0.0000000000000000000, -1.000000000000000000 ) ) ;
#39 = ORIENTED_EDGE ( 'NONE', *, *, #285, .F. ) ;
#40 = DIMENSIONAL_EXPONENTS ( 1.000000000000000000, 0.0000000000000000000, 0.0000000000000000000, 0.0000000000000000000, 0.0000000000000000000, 0.0000000000000000000, 0.0000000000000000000 ) ;
#41 = DIRECTION ( 'NONE',  ( 0.5000000000000000000, 0.8660254037844385966, 0.0000000000000000000 ) ) ;
#42 = ORIENTED_EDGE ( 'NONE', *, *, #85, .F. ) ;
#43 = LINE ( 'NONE', #139, #153 ) ;
#44 = CIRCLE ( 'NONE', #302, 0.3937007874015748254 ) ;
#45 = EDGE_LOOP ( 'NONE', ( #148 ) ) ;
#46 = VECTOR ( 'NONE', #75, 39.37007874015748143 ) ;
#47 = CARTESIAN_POINT ( 'NONE',  ( -0.1082531754730547829, -0.1874999999999999722, 0.0000000000000000000 ) ) ;
#48 = ORIENTED_EDGE ( 'NONE', *, *, #149, .T. ) ;
#49 = ADVANCED_FACE ( 'NONE', ( #286 ), #282, .T. ) ;
#50 = CARTESIAN_POINT ( 'NONE',  ( 0.1082531754730549634, -0.1874999999999999167, 0.0000000000000000000 ) ) ;
#51 = DIRECTION ( 'NONE',  ( -0.5000000000000002220, -0.8660254037844384856, 0.0000000000000000000 ) ) ;
#52 = ORIENTED_EDGE ( 'NONE', *, *, #22, .F. ) ;
#53 = CARTESIAN_POINT ( 'NONE',  ( -0.1082531754730548107, 0.1875000000000000555, 0.3750000000000000555 ) ) ;
#54 = LINE ( 'NONE', #53, #279 ) ;
#55 = ORIENTED_EDGE ( 'NONE', *, *, #168, .F. ) ;
#56 = CARTESIAN_POINT ( 'NONE',  ( 0.2165063509461097047, -7.084637897906329745E-17, 0.0000000000000000000 ) ) ;
#57 = DIRECTION ( 'NONE',  ( -0.0000000000000000000, -0.0000000000000000000, -1.000000000000000000 ) ) ;
#58 = VERTEX_POINT ( 'NONE', #262 ) ;
#59 = LENGTH_MEASURE_WITH_UNIT ( LENGTH_MEASURE( 0.02539999999999999897 ), #84 );
#60 = CARTESIAN_POINT ( 'NONE',  ( 0.1082531754730549634, -0.1874999999999999167, 0.3750000000000000555 ) ) ;
#61 = ADVANCED_FACE ( 'NONE', ( #259, #250 ), #247, .F. ) ;
#62 = STYLED_ITEM ( 'NONE', ( #291 ), #181 ) ;
#63 = VECTOR ( 'NONE', #249, 39.37007874015748143 ) ;
#64 = LINE ( 'NONE', #60, #195 ) ;
#65 = COLOUR_RGB ( '',0.2509803921568627416, 0.2509803921568627416, 0.2509803921568627416 ) ;
#66 = PLANE ( 'NONE',  #105 ) ;
#67 = DIRECTION ( 'NONE',  ( -0.5000000000000001110, -0.8660254037844385966, 0.0000000000000000000 ) ) ;
#68 = ORIENTED_EDGE ( 'NONE', *, *, #208, .T. ) ;
#69 = EDGE_LOOP ( 'NONE', ( #42 ) ) ;
#70 = ORIENTED_EDGE ( 'NONE', *, *, #147, .F. ) ;
#71 = ORIENTED_EDGE ( 'NONE', *, *, #275, .F. ) ;
#72 = PLANE ( 'NONE',  #100 ) ;
#73 = APPLICATION_CONTEXT ( 'automotive_design' ) ;
#74 = ORIENTED_EDGE ( 'NONE', *, *, #116, .F. ) ;
#75 = DIRECTION ( 'NONE',  ( -0.5000000000000001110, 0.8660254037844385966, 0.0000000000000000000 ) ) ;
#76 = CARTESIAN_POINT ( 'NONE',  ( 0.2165063509461097047, -7.084637897906329745E-17, 0.0000000000000000000 ) ) ;
#77 = ORIENTED_EDGE ( 'NONE', *, *, #150, .F. ) ;
#78 = AXIS2_PLACEMENT_3D ( 'NONE', #217, #194, #191 ) ;
#79 = LINE ( 'NONE', #76, #46 ) ;
#80 = EDGE_LOOP ( 'NONE', ( #77, #96, #145, #70, #307, #205 ) ) ;
#81 = EDGE_CURVE ( 'NONE', #21, #311, #240, .T. ) ;
#82 = DIRECTION ( 'NONE',  ( 0.5000000000000003331, -0.8660254037844383745, 0.0000000000000000000 ) ) ;
#83 = AXIS2_PLACEMENT_3D ( 'NONE', #199, #23, #16 ) ;
#84 =( LENGTH_UNIT ( ) NAMED_UNIT ( * ) SI_UNIT ( $, .METRE. ) );
#85 = EDGE_CURVE ( 'NONE', #196, #196, #12, .T. ) ;
#86 = CARTESIAN_POINT ( 'NONE',  ( 0.1082531754730547829, 0.1875000000000000555, 0.3750000000000000555 ) ) ;
#87 = LINE ( 'NONE', #238, #6 ) ;
#88 = PRODUCT_RELATED_PRODUCT_CATEGORY ( 'part', '', ( #252 ) ) ;
#89 = DIRECTION ( 'NONE',  ( 0.0000000000000000000, -1.000000000000000000, 0.0000000000000000000 ) ) ;
#90 = ORIENTED_EDGE ( 'NONE', *, *, #150, .T. ) ;
#91 = CARTESIAN_POINT ( 'NONE',  ( -0.1082531754730547829, -0.1874999999999999722, 0.3750000000000000555 ) ) ;
#92 = SHAPE_DEFINITION_REPRESENTATION ( #200, #181 ) ;
#93 = MECHANICAL_DESIGN_GEOMETRIC_PRESENTATION_REPRESENTATION (  '', ( #278 ), #272 ) ;
#94 = CARTESIAN_POINT ( 'NONE',  ( -0.2165063509461097047, 3.211045840221350913E-17, 0.0000000000000000000 ) ) ;
#95 = APPLICATION_PROTOCOL_DEFINITION ( 'draft international standard', 'automotive_design', 1998, #310 ) ;
#96 = ORIENTED_EDGE ( 'NONE', *, *, #267, .F. ) ;
#97 = MANIFOLD_SOLID_BREP ( 'Boss-Extrude1', #234 ) ;
#98 = LINE ( 'NONE', #94, #210 ) ;
#99 = SURFACE_STYLE_FILL_AREA ( #243 ) ;
#100 = AXIS2_PLACEMENT_3D ( 'NONE', #123, #254, #67 ) ;
#101 = UNCERTAINTY_MEASURE_WITH_UNIT (LENGTH_MEASURE( 1.000000000000000082E-05 ), #37, 'distance_accuracy_value', 'NONE');
#102 = EDGE_CURVE ( 'NONE', #311, #138, #98, .T. ) ;
#103 = PRODUCT_CONTEXT ( 'NONE', #73, 'mechanical' ) ;
#104 = VERTEX_POINT ( 'NONE', #189 ) ;
#105 = AXIS2_PLACEMENT_3D ( 'NONE', #86, #89, #19 ) ;
#106 = EDGE_CURVE ( 'NONE', #121, #104, #79, .T. ) ;
#107 = APPLICATION_PROTOCOL_DEFINITION ( 'draft international standard', 'automotive_design', 1998, #73 ) ;
#108 = ORIENTED_EDGE ( 'NONE', *, *, #267, .T. ) ;
#109 = CARTESIAN_POINT ( 'NONE',  ( 0.3937007874015748254, 0.0000000000000000000, 0.0000000000000000000 ) ) ;
#110 =( NAMED_UNIT ( * ) SI_UNIT ( $, .STERADIAN. ) SOLID_ANGLE_UNIT ( ) );
#111 = CARTESIAN_POINT ( 'NONE',  ( 0.1082531754730547829, 0.1875000000000000555, 0.3750000000000000555 ) ) ;
#112 = CARTESIAN_POINT ( 'NONE',  ( -0.1082531754730548107, 0.1875000000000000555, 0.0000000000000000000 ) ) ;
#113 = DIMENSIONAL_EXPONENTS ( 1.000000000000000000, 0.0000000000000000000, 0.0000000000000000000, 0.0000000000000000000, 0.0000000000000000000, 0.0000000000000000000, 0.0000000000000000000 ) ;
#114 = FACE_OUTER_BOUND ( 'NONE', #255, .T. ) ;
#115 = VERTEX_POINT ( 'NONE', #132 ) ;
#116 = EDGE_CURVE ( 'NONE', #167, #126, #64, .T. ) ;
#117 = AXIS2_PLACEMENT_3D ( 'NONE', #144, #124, #120 ) ;
#118 = FACE_BOUND ( 'NONE', #80, .T. ) ;
#119 = VECTOR ( 'NONE', #29, 39.37007874015748143 ) ;
#120 = DIRECTION ( 'NONE',  ( 1.000000000000000000, 0.0000000000000000000, 0.0000000000000000000 ) ) ;
#121 = VERTEX_POINT ( 'NONE', #56 ) ;
#122 = ORIENTED_EDGE ( 'NONE', *, *, #285, .T. ) ;
#123 = CARTESIAN_POINT ( 'NONE',  ( 0.1082531754730549634, -0.1874999999999999167, 0.3750000000000000555 ) ) ;
#124 = DIRECTION ( 'NONE',  ( 0.0000000000000000000, 0.0000000000000000000, 1.000000000000000000 ) ) ;
#125 = EDGE_CURVE ( 'NONE', #58, #21, #54, .T. ) ;
#126 = VERTEX_POINT ( 'NONE', #50 ) ;
#127 = ORIENTED_EDGE ( 'NONE', *, *, #106, .T. ) ;
#128 =( NAMED_UNIT ( * ) PLANE_ANGLE_UNIT ( ) SI_UNIT ( $, .RADIAN. ) );
#129 = PRESENTATION_LAYER_ASSIGNMENT (  '', '', ( #62 ) ) ;
#130 = CARTESIAN_POINT ( 'NONE',  ( -0.2165063509461097047, 3.211045840221350913E-17, 0.0000000000000000000 ) ) ;
#131 = LINE ( 'NONE', #225, #162 ) ;
#132 = CARTESIAN_POINT ( 'NONE',  ( 0.3937007874015748254, 0.0000000000000000000, 0.3750000000000000555 ) ) ;
#133 = CYLINDRICAL_SURFACE ( 'NONE', #213, 0.3937007874015748254 ) ;
#134 = CARTESIAN_POINT ( 'NONE',  ( -0.1082531754730547829, -0.1874999999999999722, 0.3750000000000000555 ) ) ;
#135 = ORIENTED_EDGE ( 'NONE', *, *, #116, .T. ) ;
#136 =( GEOMETRIC_REPRESENTATION_CONTEXT ( 3 ) GLOBAL_UNCERTAINTY_ASSIGNED_CONTEXT ( ( #101 ) ) GLOBAL_UNIT_ASSIGNED_CONTEXT ( ( #37, #35, #15 ) ) REPRESENTATION_CONTEXT ( 'NONE', 'WORKASPACE' ) );
#137 = CARTESIAN_POINT ( 'NONE',  ( 0.0000000000000000000, 0.0000000000000000000, 0.3750000000000000555 ) ) ;
#138 = VERTEX_POINT ( 'NONE', #47 ) ;
#139 = CARTESIAN_POINT ( 'NONE',  ( -0.1082531754730548107, 0.1875000000000000555, 0.0000000000000000000 ) ) ;
#140 = ORIENTED_EDGE ( 'NONE', *, *, #18, .F. ) ;
#141 = AXIS2_PLACEMENT_3D ( 'NONE', #246, #244, #242 ) ;
#142 = UNCERTAINTY_MEASURE_WITH_UNIT (LENGTH_MEASURE( 1.000000000000000082E-05 ), #232, 'distance_accuracy_value', 'NONE');
#143 =( CONVERSION_BASED_UNIT ( 'INCH', #146 ) LENGTH_UNIT ( ) NAMED_UNIT ( #40 ) );
#144 = CARTESIAN_POINT ( 'NONE',  ( 0.0000000000000000000, 0.0000000000000000000, 0.0000000000000000000 ) ) ;
#145 = ORIENTED_EDGE ( 'NONE', *, *, #258, .F. ) ;
#146 = LENGTH_MEASURE_WITH_UNIT ( LENGTH_MEASURE( 0.02539999999999999897 ), #165 );
#147 = EDGE_CURVE ( 'NONE', #21, #180, #34, .T. ) ;
#148 = ORIENTED_EDGE ( 'NONE', *, *, #85, .T. ) ;
#149 = EDGE_CURVE ( 'NONE', #26, #58, #27, .T. ) ;
#150 = EDGE_CURVE ( 'NONE', #245, #26, #10, .T. ) ;
#151 = DIRECTION ( 'NONE',  ( 0.5000000000000000000, 0.8660254037844385966, 0.0000000000000000000 ) ) ;
#152 = DIRECTION ( 'NONE',  ( 1.000000000000000000, 3.154466349054401728E-16, 0.0000000000000000000 ) ) ;
#153 = VECTOR ( 'NONE', #174, 39.37007874015749564 ) ;
#154 = ADVANCED_FACE ( 'NONE', ( #3 ), #66, .T. ) ;
#155 = CARTESIAN_POINT ( 'NONE',  ( 0.1082531754730549634, -0.1874999999999999167, 0.0000000000000000000 ) ) ;
#156 = CARTESIAN_POINT ( 'NONE',  ( 0.0000000000000000000, 0.0000000000000000000, 0.3750000000000000555 ) ) ;
#157 = ORIENTED_EDGE ( 'NONE', *, *, #284, .T. ) ;
#158 = AXIS2_PLACEMENT_3D ( 'NONE', #269, #265, #264 ) ;
#159 = DIRECTION ( 'NONE',  ( 0.0000000000000000000, 0.0000000000000000000, 1.000000000000000000 ) ) ;
#160 = DIRECTION ( 'NONE',  ( 1.000000000000000000, 0.0000000000000000000, 0.0000000000000000000 ) ) ;
#161 = ORIENTED_EDGE ( 'NONE', *, *, #208, .F. ) ;
#162 = VECTOR ( 'NONE', #41, 39.37007874015748854 ) ;
#163 = FACE_OUTER_BOUND ( 'NONE', #227, .T. ) ;
#164 = ORIENTED_EDGE ( 'NONE', *, *, #258, .T. ) ;
#165 =( LENGTH_UNIT ( ) NAMED_UNIT ( * ) SI_UNIT ( $, .METRE. ) );
#166 = CARTESIAN_POINT ( 'NONE',  ( -0.1082531754730547829, -0.1874999999999999722, 0.3750000000000000555 ) ) ;
#167 = VERTEX_POINT ( 'NONE', #308 ) ;
#168 = EDGE_CURVE ( 'NONE', #180, #138, #251, .T. ) ;
#169 = PRESENTATION_STYLE_ASSIGNMENT (( #171 ) ) ;
#170 = ORIENTED_EDGE ( 'NONE', *, *, #260, .T. ) ;
#171 = SURFACE_STYLE_USAGE ( .BOTH. , #172 ) ;
#172 = SURFACE_SIDE_STYLE ('',( #182 ) ) ;
#173 = LINE ( 'NONE', #155, #20 ) ;
#174 = DIRECTION ( 'NONE',  ( -0.5000000000000002220, -0.8660254037844384856, 0.0000000000000000000 ) ) ;
#175 = DIRECTION ( 'NONE',  ( -1.000000000000000000, 0.0000000000000000000, 0.0000000000000000000 ) ) ;
#176 = DIRECTION ( 'NONE',  ( -1.000000000000000000, 0.0000000000000000000, 0.0000000000000000000 ) ) ;
#177 = LINE ( 'NONE', #179, #226 ) ;
#178 = ORIENTED_EDGE ( 'NONE', *, *, #294, .F. ) ;
#179 = CARTESIAN_POINT ( 'NONE',  ( 0.2165063509461097047, -7.084637897906329745E-17, 0.3750000000000000555 ) ) ;
#180 = VERTEX_POINT ( 'NONE', #134 ) ;
#181 = ADVANCED_BREP_SHAPE_REPRESENTATION ( 'am-3947-375 375H x 375IN Spacer', ( #97, #117 ), #136 ) ;
#182 = SURFACE_STYLE_FILL_AREA ( #183 ) ;
#183 = FILL_AREA_STYLE ('',( #185 ) ) ;
#184 = COLOUR_RGB ( '',0.2509803921568627416, 0.2509803921568627416, 0.2509803921568627416 ) ;
#185 = FILL_AREA_STYLE_COLOUR ( '', #65 ) ;
#186 = VECTOR ( 'NONE', #175, 39.37007874015748143 ) ;
#187 = FILL_AREA_STYLE_COLOUR ( '', #184 ) ;
#188 = CARTESIAN_POINT ( 'NONE',  ( -0.2165063509461097047, 3.211045840221350913E-17, 0.3750000000000000555 ) ) ;
#189 = CARTESIAN_POINT ( 'NONE',  ( 0.1082531754730547829, 0.1875000000000000555, 0.0000000000000000000 ) ) ;
#190 =( NAMED_UNIT ( * ) SI_UNIT ( $, .STERADIAN. ) SOLID_ANGLE_UNIT ( ) );
#191 = DIRECTION ( 'NONE',  ( 1.000000000000000000, 0.0000000000000000000, 0.0000000000000000000 ) ) ;
#192 = ORIENTED_EDGE ( 'NONE', *, *, #284, .F. ) ;
#193 = PRODUCT_DEFINITION ( 'UNKNOWN', '', #289, #214 ) ;
#194 = DIRECTION ( 'NONE',  ( 0.0000000000000000000, 0.0000000000000000000, 1.000000000000000000 ) ) ;
#195 = VECTOR ( 'NONE', #57, 39.37007874015748143 ) ;
#196 = VERTEX_POINT ( 'NONE', #109 ) ;
#197 = ADVANCED_FACE ( 'NONE', ( #163, #207 ), #133, .T. ) ;
#198 = CARTESIAN_POINT ( 'NONE',  ( 0.1082531754730547829, 0.1875000000000000555, 0.0000000000000000000 ) ) ;
#199 = CARTESIAN_POINT ( 'NONE',  ( -0.1082531754730548107, 0.1875000000000000555, 0.3750000000000000555 ) ) ;
#200 = PRODUCT_DEFINITION_SHAPE ( 'NONE', 'NONE',  #193 ) ;
#201 = EDGE_LOOP ( 'NONE', ( #178, #74, #108, #30 ) ) ;
#202 = DIMENSIONAL_EXPONENTS ( 1.000000000000000000, 0.0000000000000000000, 0.0000000000000000000, 0.0000000000000000000, 0.0000000000000000000, 0.0000000000000000000, 0.0000000000000000000 ) ;
#203 = FACE_OUTER_BOUND ( 'NONE', #201, .T. ) ;
#204 = ORIENTED_EDGE ( 'NONE', *, *, #22, .T. ) ;
#205 = ORIENTED_EDGE ( 'NONE', *, *, #149, .F. ) ;
#206 = VECTOR ( 'NONE', #11, 39.37007874015748143 ) ;
#207 = FACE_OUTER_BOUND ( 'NONE', #45, .T. ) ;
#208 = EDGE_CURVE ( 'NONE', #266, #311, #43, .T. ) ;
#209 = FACE_OUTER_BOUND ( 'NONE', #218, .T. ) ;
#210 = VECTOR ( 'NONE', #82, 39.37007874015748143 ) ;
#211 =( NAMED_UNIT ( * ) PLANE_ANGLE_UNIT ( ) SI_UNIT ( $, .RADIAN. ) );
#212 = EDGE_LOOP ( 'NONE', ( #39, #192, #48, #204 ) ) ;
#213 = AXIS2_PLACEMENT_3D ( 'NONE', #137, #231, #176 ) ;
#214 = PRODUCT_DEFINITION_CONTEXT ( 'detailed design', #310, 'design' ) ;
#215 = ORIENTED_EDGE ( 'NONE', *, *, #168, .T. ) ;
#216 = VECTOR ( 'NONE', #38, 39.37007874015748143 ) ;
#217 = CARTESIAN_POINT ( 'NONE',  ( 0.0000000000000000000, 0.0000000000000000000, 0.0000000000000000000 ) ) ;
#218 = EDGE_LOOP ( 'NONE', ( #170 ) ) ;
#219 = DIRECTION ( 'NONE',  ( -0.0000000000000000000, -0.0000000000000000000, -1.000000000000000000 ) ) ;
#220 = AXIS2_PLACEMENT_3D ( 'NONE', #233, #159, #1 ) ;
#221 = DIRECTION ( 'NONE',  ( -1.000000000000000000, -3.154466349054401728E-16, 0.0000000000000000000 ) ) ;
#222 = LINE ( 'NONE', #166, #270 ) ;
#223 = LINE ( 'NONE', #198, #186 ) ;
#224 = ADVANCED_FACE ( 'NONE', ( #114 ), #261, .T. ) ;
#225 = CARTESIAN_POINT ( 'NONE',  ( 0.1082531754730549634, -0.1874999999999999167, 0.3750000000000000555 ) ) ;
#226 = VECTOR ( 'NONE', #306, 39.37007874015748143 ) ;
#227 = EDGE_LOOP ( 'NONE', ( #24 ) ) ;
#228 = EDGE_LOOP ( 'NONE', ( #295, #140, #90, #157 ) ) ;
#229 = VECTOR ( 'NONE', #304, 39.37007874015748143 ) ;
#230 = AXIS2_PLACEMENT_3D ( 'NONE', #273, #268, #221 ) ;
#231 = DIRECTION ( 'NONE',  ( -0.0000000000000000000, -0.0000000000000000000, -1.000000000000000000 ) ) ;
#232 =( CONVERSION_BASED_UNIT ( 'INCH', #239 ) LENGTH_UNIT ( ) NAMED_UNIT ( #113 ) );
#233 = CARTESIAN_POINT ( 'NONE',  ( 0.0000000000000000000, 0.0000000000000000000, 0.3750000000000000555 ) ) ;
#234 = CLOSED_SHELL ( 'NONE', ( #8, #61, #197, #236, #49, #154, #224, #31, #276 ) ) ;
#235 = CARTESIAN_POINT ( 'NONE',  ( -0.1082531754730547829, -0.1874999999999999722, 0.0000000000000000000 ) ) ;
#236 = ADVANCED_FACE ( 'NONE', ( #203 ), #72, .T. ) ;
#237 = CARTESIAN_POINT ( 'NONE',  ( -0.2165063509461097047, 3.211045840221350913E-17, 0.3750000000000000555 ) ) ;
#238 = CARTESIAN_POINT ( 'NONE',  ( -0.1082531754730548107, 0.1875000000000000555, 0.3750000000000000555 ) ) ;
#239 = LENGTH_MEASURE_WITH_UNIT ( LENGTH_MEASURE( 0.02539999999999999897 ), #263 );
#240 = LINE ( 'NONE', #237, #271 ) ;
#241 = PLANE ( 'NONE',  #220 ) ;
#242 = DIRECTION ( 'NONE',  ( 1.000000000000000000, 0.0000000000000000000, -0.0000000000000000000 ) ) ;
#243 = FILL_AREA_STYLE ('',( #187 ) ) ;
#244 = DIRECTION ( 'NONE',  ( 0.0000000000000000000, 0.0000000000000000000, 1.000000000000000000 ) ) ;
#245 = VERTEX_POINT ( 'NONE', #277 ) ;
#246 = CARTESIAN_POINT ( 'NONE',  ( 0.0000000000000000000, 0.0000000000000000000, 0.0000000000000000000 ) ) ;
#247 = PLANE ( 'NONE',  #141 ) ;
#248 =( GEOMETRIC_REPRESENTATION_CONTEXT ( 3 ) GLOBAL_UNCERTAINTY_ASSIGNED_CONTEXT ( ( #142 ) ) GLOBAL_UNIT_ASSIGNED_CONTEXT ( ( #232, #211, #190 ) ) REPRESENTATION_CONTEXT ( 'NONE', 'WORKASPACE' ) );
#249 = DIRECTION ( 'NONE',  ( -0.0000000000000000000, -0.0000000000000000000, -1.000000000000000000 ) ) ;
#250 = FACE_BOUND ( 'NONE', #9, .T. ) ;
#251 = LINE ( 'NONE', #91, #216 ) ;
#252 = PRODUCT ( 'am-3947-375 375H x 375IN Spacer', 'am-3947-375 375H x 375IN Spacer', '', ( #103 ) ) ;
#253 = ORIENTED_EDGE ( 'NONE', *, *, #125, .T. ) ;
#254 = DIRECTION ( 'NONE',  ( -0.8660254037844385966, 0.5000000000000001110, 0.0000000000000000000 ) ) ;
#255 = EDGE_LOOP ( 'NONE', ( #161, #52, #253, #256 ) ) ;
#256 = ORIENTED_EDGE ( 'NONE', *, *, #81, .T. ) ;
#257 = EDGE_LOOP ( 'NONE', ( #4, #17, #283, #215 ) ) ;
#258 = EDGE_CURVE ( 'NONE', #180, #167, #222, .T. ) ;
#259 = FACE_OUTER_BOUND ( 'NONE', #69, .T. ) ;
#260 = EDGE_CURVE ( 'NONE', #115, #115, #44, .T. ) ;
#261 = PLANE ( 'NONE',  #83 ) ;
#262 = CARTESIAN_POINT ( 'NONE',  ( -0.1082531754730548107, 0.1875000000000000555, 0.3750000000000000555 ) ) ;
#263 =( LENGTH_UNIT ( ) NAMED_UNIT ( * ) SI_UNIT ( $, .METRE. ) );
#264 = DIRECTION ( 'NONE',  ( 0.5000000000000002220, -0.8660254037844385966, 0.0000000000000000000 ) ) ;
#265 = DIRECTION ( 'NONE',  ( -0.8660254037844385966, -0.5000000000000002220, 0.0000000000000000000 ) ) ;
#266 = VERTEX_POINT ( 'NONE', #112 ) ;
#267 = EDGE_CURVE ( 'NONE', #167, #245, #131, .T. ) ;
#268 = DIRECTION ( 'NONE',  ( -3.154466349054401728E-16, 1.000000000000000000, 0.0000000000000000000 ) ) ;
#269 = CARTESIAN_POINT ( 'NONE',  ( 0.2165063509461097047, -7.084637897906329745E-17, 0.3750000000000000555 ) ) ;
#270 = VECTOR ( 'NONE', #152, 39.37007874015748143 ) ;
#271 = VECTOR ( 'NONE', #219, 39.37007874015748143 ) ;
#272 =( GEOMETRIC_REPRESENTATION_CONTEXT ( 3 ) GLOBAL_UNCERTAINTY_ASSIGNED_CONTEXT ( ( #28 ) ) GLOBAL_UNIT_ASSIGNED_CONTEXT ( ( #143, #128, #110 ) ) REPRESENTATION_CONTEXT ( 'NONE', 'WORKASPACE' ) );
#273 = CARTESIAN_POINT ( 'NONE',  ( -0.1082531754730547829, -0.1874999999999999722, 0.3750000000000000555 ) ) ;
#274 = PLANE ( 'NONE',  #230 ) ;
#275 = EDGE_CURVE ( 'NONE', #138, #126, #36, .T. ) ;
#276 = ADVANCED_FACE ( 'NONE', ( #303 ), #274, .T. ) ;
#277 = CARTESIAN_POINT ( 'NONE',  ( 0.2165063509461097047, -7.084637897906329745E-17, 0.3750000000000000555 ) ) ;
#278 = STYLED_ITEM ( 'NONE', ( #169 ), #97 ) ;
#279 = VECTOR ( 'NONE', #51, 39.37007874015749564 ) ;
#280 = ORIENTED_EDGE ( 'NONE', *, *, #294, .T. ) ;
#281 = DIRECTION ( 'NONE',  ( 0.0000000000000000000, 0.0000000000000000000, 1.000000000000000000 ) ) ;
#282 = PLANE ( 'NONE',  #158 ) ;
#283 = ORIENTED_EDGE ( 'NONE', *, *, #147, .T. ) ;
#284 = EDGE_CURVE ( 'NONE', #26, #104, #14, .T. ) ;
#285 = EDGE_CURVE ( 'NONE', #104, #266, #223, .T. ) ;
#286 = FACE_OUTER_BOUND ( 'NONE', #228, .T. ) ;
#287 = DIRECTION ( 'NONE',  ( -0.5000000000000003331, 0.8660254037844383745, 0.0000000000000000000 ) ) ;
#288 = EDGE_LOOP ( 'NONE', ( #71, #55, #164, #135 ) ) ;
#289 = PRODUCT_DEFINITION_FORMATION_WITH_SPECIFIED_SOURCE ( 'ANY', '', #252, .NOT_KNOWN. ) ;
#290 = DIRECTION ( 'NONE',  ( 0.8660254037844384856, 0.5000000000000004441, -0.0000000000000000000 ) ) ;
#291 = PRESENTATION_STYLE_ASSIGNMENT (( #293 ) ) ;
#292 = CARTESIAN_POINT ( 'NONE',  ( -0.2165063509461097047, 3.211045840221350913E-17, 0.3750000000000000555 ) ) ;
#293 = SURFACE_STYLE_USAGE ( .BOTH. , #298 ) ;
#294 = EDGE_CURVE ( 'NONE', #126, #121, #173, .T. ) ;
#295 = ORIENTED_EDGE ( 'NONE', *, *, #106, .F. ) ;
#296 = PLANE ( 'NONE',  #2 ) ;
#297 = FACE_OUTER_BOUND ( 'NONE', #257, .T. ) ;
#298 = SURFACE_SIDE_STYLE ('',( #99 ) ) ;
#299 = ORIENTED_EDGE ( 'NONE', *, *, #102, .T. ) ;
#300 = CARTESIAN_POINT ( 'NONE',  ( 0.1082531754730547829, 0.1875000000000000555, 0.3750000000000000555 ) ) ;
#301 = DIRECTION ( 'NONE',  ( -0.0000000000000000000, -0.0000000000000000000, -1.000000000000000000 ) ) ;
#302 = AXIS2_PLACEMENT_3D ( 'NONE', #156, #281, #160 ) ;
#303 = FACE_OUTER_BOUND ( 'NONE', #288, .T. ) ;
#304 = DIRECTION ( 'NONE',  ( 1.000000000000000000, 3.154466349054401728E-16, 0.0000000000000000000 ) ) ;
#305 = MECHANICAL_DESIGN_GEOMETRIC_PRESENTATION_REPRESENTATION (  '', ( #62 ), #248 ) ;
#306 = DIRECTION ( 'NONE',  ( -0.0000000000000000000, -0.0000000000000000000, -1.000000000000000000 ) ) ;
#307 = ORIENTED_EDGE ( 'NONE', *, *, #125, .F. ) ;
#308 = CARTESIAN_POINT ( 'NONE',  ( 0.1082531754730549634, -0.1874999999999999167, 0.3750000000000000555 ) ) ;
#309 = VECTOR ( 'NONE', #5, 39.37007874015748143 ) ;
#310 = APPLICATION_CONTEXT ( 'automotive_design' ) ;
#311 = VERTEX_POINT ( 'NONE', #130 ) ;
ENDSEC;
END-ISO-10303-21;
