ISO-10303-21;
HEADER;
FILE_DESCRIPTION (( 'STEP AP214' ),
    '1' );
FILE_NAME ('am-0283 0.25IN id, 5-16IN od, 0.5IN Long Bushing REV2.STEP',
    '2018-07-20T14:18:09',
    ( '' ),
    ( '' ),
    'SwSTEP 2.0',
    'SolidWorks 2018',
    '' );
FILE_SCHEMA (( 'AUTOMOTIVE_DESIGN' ));
ENDSEC;

DATA;
#1 = MANIFOLD_SOLID_BREP ( 'Boss-Extrude1', #120 ) ;
#2 = EDGE_CURVE ( 'NONE', #165, #54, #62, .T. ) ;
#3 = DIRECTION ( 'NONE',  ( 0.0000000000000000000, 0.0000000000000000000, -1.000000000000000000 ) ) ;
#4 = ORIENTED_EDGE ( 'NONE', *, *, #188, .T. ) ;
#5 = CARTESIAN_POINT ( 'NONE',  ( 0.0000000000000000000, 0.0000000000000000000, 0.0000000000000000000 ) ) ;
#6 = SHAPE_DEFINITION_REPRESENTATION ( #192, #157 ) ;
#7 = EDGE_CURVE ( 'NONE', #119, #20, #116, .T. ) ;
#8 = DIRECTION ( 'NONE',  ( 0.0000000000000000000, 1.000000000000000000, 0.0000000000000000000 ) ) ;
#9 = APPLICATION_PROTOCOL_DEFINITION ( 'draft international standard', 'automotive_design', 1998, #11 ) ;
#10 = CARTESIAN_POINT ( 'NONE',  ( 0.0000000000000000000, 0.5000000000000000000, -0.1562500000000000000 ) ) ;
#11 = APPLICATION_CONTEXT ( 'automotive_design' ) ;
#12 = EDGE_LOOP ( 'NONE', ( #164, #191, #173, #27 ) ) ;
#13 =( CONVERSION_BASED_UNIT ( 'INCH', #208 ) LENGTH_UNIT ( ) NAMED_UNIT ( #47 ) );
#14 = LINE ( 'NONE', #28, #53 ) ;
#15 =( NAMED_UNIT ( * ) SI_UNIT ( $, .STERADIAN. ) SOLID_ANGLE_UNIT ( ) );
#16 = EDGE_CURVE ( 'NONE', #54, #20, #14, .T. ) ;
#17 = DIRECTION ( 'NONE',  ( 0.0000000000000000000, 0.0000000000000000000, 1.000000000000000000 ) ) ;
#18 = DIRECTION ( 'NONE',  ( -0.0000000000000000000, -1.000000000000000000, -0.0000000000000000000 ) ) ;
#19 = APPLICATION_PROTOCOL_DEFINITION ( 'draft international standard', 'automotive_design', 1998, #23 ) ;
#20 = VERTEX_POINT ( 'NONE', #69 ) ;
#21 = ORIENTED_EDGE ( 'NONE', *, *, #193, .F. ) ;
#22 = DIRECTION ( 'NONE',  ( 0.0000000000000000000, 0.0000000000000000000, 1.000000000000000000 ) ) ;
#23 = APPLICATION_CONTEXT ( 'automotive_design' ) ;
#24 = PRODUCT_CONTEXT ( 'NONE', #23, 'mechanical' ) ;
#25 = CIRCLE ( 'NONE', #172, 0.1250000000000000000 ) ;
#26 = DIRECTION ( 'NONE',  ( 0.0000000000000000000, 0.0000000000000000000, -1.000000000000000000 ) ) ;
#27 = ORIENTED_EDGE ( 'NONE', *, *, #203, .F. ) ;
#28 = CARTESIAN_POINT ( 'NONE',  ( 1.913510623667739463E-17, 0.5000000000000000000, 0.1562500000000000000 ) ) ;
#29 = DIRECTION ( 'NONE',  ( 0.0000000000000000000, 0.0000000000000000000, 1.000000000000000000 ) ) ;
#30 =( NAMED_UNIT ( * ) PLANE_ANGLE_UNIT ( ) SI_UNIT ( $, .RADIAN. ) );
#31 = DIRECTION ( 'NONE',  ( 0.0000000000000000000, 0.0000000000000000000, -1.000000000000000000 ) ) ;
#32 = SURFACE_STYLE_USAGE ( .BOTH. , #101 ) ;
#33 = ADVANCED_FACE ( 'NONE', ( #102 ), #146, .F. ) ;
#34 = DIRECTION ( 'NONE',  ( -0.0000000000000000000, -1.000000000000000000, -0.0000000000000000000 ) ) ;
#35 = FACE_BOUND ( 'NONE', #73, .T. ) ;
#36 = CARTESIAN_POINT ( 'NONE',  ( 0.0000000000000000000, 0.5000000000000000000, 0.0000000000000000000 ) ) ;
#37 = LINE ( 'NONE', #216, #90 ) ;
#38 = FACE_OUTER_BOUND ( 'NONE', #156, .T. ) ;
#39 = DIRECTION ( 'NONE',  ( 0.0000000000000000000, 1.000000000000000000, 0.0000000000000000000 ) ) ;
#40 = AXIS2_PLACEMENT_3D ( 'NONE', #36, #109, #211 ) ;
#41 = CARTESIAN_POINT ( 'NONE',  ( 0.0000000000000000000, 0.0000000000000000000, 0.0000000000000000000 ) ) ;
#42 = MECHANICAL_DESIGN_GEOMETRIC_PRESENTATION_REPRESENTATION (  '', ( #126 ), #55 ) ;
#43 = DIRECTION ( 'NONE',  ( 0.0000000000000000000, 1.000000000000000000, 0.0000000000000000000 ) ) ;
#44 =( NAMED_UNIT ( * ) PLANE_ANGLE_UNIT ( ) SI_UNIT ( $, .RADIAN. ) );
#45 = EDGE_CURVE ( 'NONE', #147, #206, #160, .T. ) ;
#46 = ORIENTED_EDGE ( 'NONE', *, *, #168, .T. ) ;
#47 = DIMENSIONAL_EXPONENTS ( 1.000000000000000000, 0.0000000000000000000, 0.0000000000000000000, 0.0000000000000000000, 0.0000000000000000000, 0.0000000000000000000, 0.0000000000000000000 ) ;
#48 = ADVANCED_FACE ( 'NONE', ( #181, #150 ), #86, .F. ) ;
#49 = ORIENTED_EDGE ( 'NONE', *, *, #45, .T. ) ;
#50 = ORIENTED_EDGE ( 'NONE', *, *, #2, .F. ) ;
#51 = PLANE ( 'NONE',  #80 ) ;
#52 = AXIS2_PLACEMENT_3D ( 'NONE', #74, #76, #3 ) ;
#53 = VECTOR ( 'NONE', #137, 39.37007874015748143 ) ;
#54 = VERTEX_POINT ( 'NONE', #65 ) ;
#55 =( GEOMETRIC_REPRESENTATION_CONTEXT ( 3 ) GLOBAL_UNCERTAINTY_ASSIGNED_CONTEXT ( ( #158 ) ) GLOBAL_UNIT_ASSIGNED_CONTEXT ( ( #154, #44, #190 ) ) REPRESENTATION_CONTEXT ( 'NONE', 'WORKASPACE' ) );
#56 = DIRECTION ( 'NONE',  ( 0.0000000000000000000, 0.0000000000000000000, 1.000000000000000000 ) ) ;
#57 = CARTESIAN_POINT ( 'NONE',  ( 0.0000000000000000000, 0.5000000000000000000, 0.0000000000000000000 ) ) ;
#58 = CARTESIAN_POINT ( 'NONE',  ( 0.0000000000000000000, 0.5000000000000000000, 0.0000000000000000000 ) ) ;
#59 = DIRECTION ( 'NONE',  ( 0.0000000000000000000, -0.0000000000000000000, 1.000000000000000000 ) ) ;
#60 = DIRECTION ( 'NONE',  ( 0.0000000000000000000, -0.0000000000000000000, 1.000000000000000000 ) ) ;
#61 = DIRECTION ( 'NONE',  ( 0.0000000000000000000, 1.000000000000000000, 0.0000000000000000000 ) ) ;
#62 = CIRCLE ( 'NONE', #108, 0.1562500000000000000 ) ;
#63 =( NAMED_UNIT ( * ) SI_UNIT ( $, .STERADIAN. ) SOLID_ANGLE_UNIT ( ) );
#64 = PRODUCT_DEFINITION ( 'UNKNOWN', '', #219, #88 ) ;
#65 = CARTESIAN_POINT ( 'NONE',  ( 1.913510623667739463E-17, 0.5000000000000000000, 0.1562500000000000000 ) ) ;
#66 = SURFACE_STYLE_USAGE ( .BOTH. , #104 ) ;
#67 = AXIS2_PLACEMENT_3D ( 'NONE', #83, #106, #162 ) ;
#68 = CIRCLE ( 'NONE', #115, 0.1562500000000000000 ) ;
#69 = CARTESIAN_POINT ( 'NONE',  ( 1.913510623667739463E-17, 0.0000000000000000000, 0.1562500000000000000 ) ) ;
#70 = SURFACE_STYLE_FILL_AREA ( #82 ) ;
#71 = ORIENTED_EDGE ( 'NONE', *, *, #222, .F. ) ;
#72 = VERTEX_POINT ( 'NONE', #213 ) ;
#73 = EDGE_LOOP ( 'NONE', ( #198, #21 ) ) ;
#74 = CARTESIAN_POINT ( 'NONE',  ( 0.0000000000000000000, 0.5000000000000000000, 0.0000000000000000000 ) ) ;
#75 = CIRCLE ( 'NONE', #40, 0.1250000000000000000 ) ;
#76 = DIRECTION ( 'NONE',  ( -0.0000000000000000000, -1.000000000000000000, -0.0000000000000000000 ) ) ;
#77 = CIRCLE ( 'NONE', #134, 0.1250000000000000000 ) ;
#78 = ADVANCED_FACE ( 'NONE', ( #217 ), #132, .T. ) ;
#79 = CARTESIAN_POINT ( 'NONE',  ( 0.0000000000000000000, 0.0000000000000000000, 0.0000000000000000000 ) ) ;
#80 = AXIS2_PLACEMENT_3D ( 'NONE', #170, #8, #60 ) ;
#81 = CYLINDRICAL_SURFACE ( 'NONE', #204, 0.1250000000000000000 ) ;
#82 = FILL_AREA_STYLE ('',( #107 ) ) ;
#83 = CARTESIAN_POINT ( 'NONE',  ( 0.0000000000000000000, 0.0000000000000000000, 0.0000000000000000000 ) ) ;
#84 = UNCERTAINTY_MEASURE_WITH_UNIT (LENGTH_MEASURE( 1.000000000000000082E-05 ), #13, 'distance_accuracy_value', 'NONE');
#85 = FILL_AREA_STYLE_COLOUR ( '', #135 ) ;
#86 = PLANE ( 'NONE',  #161 ) ;
#87 = EDGE_LOOP ( 'NONE', ( #96, #71 ) ) ;
#88 = PRODUCT_DEFINITION_CONTEXT ( 'detailed design', #11, 'design' ) ;
#89 = EDGE_LOOP ( 'NONE', ( #138, #167, #49, #183 ) ) ;
#90 = VECTOR ( 'NONE', #151, 39.37007874015748143 ) ;
#91 = VECTOR ( 'NONE', #207, 39.37007874015748143 ) ;
#92 = PRODUCT ( 'am-0283 0.25IN id, 5-16IN od, 0.5IN Long Bushing REV2', 'am-0283 0.25IN id, 5-16IN od, 0.5IN Long Bushing REV2', '', ( #24 ) ) ;
#93 = VERTEX_POINT ( 'NONE', #169 ) ;
#94 = ORIENTED_EDGE ( 'NONE', *, *, #16, .F. ) ;
#95 = ORIENTED_EDGE ( 'NONE', *, *, #2, .T. ) ;
#96 = ORIENTED_EDGE ( 'NONE', *, *, #7, .F. ) ;
#97 = DIMENSIONAL_EXPONENTS ( 1.000000000000000000, 0.0000000000000000000, 0.0000000000000000000, 0.0000000000000000000, 0.0000000000000000000, 0.0000000000000000000, 0.0000000000000000000 ) ;
#98 = PRESENTATION_STYLE_ASSIGNMENT (( #66 ) ) ;
#99 = FACE_OUTER_BOUND ( 'NONE', #12, .T. ) ;
#100 = FACE_OUTER_BOUND ( 'NONE', #103, .T. ) ;
#101 = SURFACE_SIDE_STYLE ('',( #70 ) ) ;
#102 = FACE_OUTER_BOUND ( 'NONE', #89, .T. ) ;
#103 = EDGE_LOOP ( 'NONE', ( #95, #46 ) ) ;
#104 = SURFACE_SIDE_STYLE ('',( #149 ) ) ;
#105 = CARTESIAN_POINT ( 'NONE',  ( 0.0000000000000000000, 0.5000000000000000000, -0.1250000000000000000 ) ) ;
#106 = DIRECTION ( 'NONE',  ( 0.0000000000000000000, 1.000000000000000000, 0.0000000000000000000 ) ) ;
#107 = FILL_AREA_STYLE_COLOUR ( '', #179 ) ;
#108 = AXIS2_PLACEMENT_3D ( 'NONE', #140, #61, #17 ) ;
#109 = DIRECTION ( 'NONE',  ( 0.0000000000000000000, 1.000000000000000000, 0.0000000000000000000 ) ) ;
#110 = AXIS2_PLACEMENT_3D ( 'NONE', #148, #34, #123 ) ;
#111 = CARTESIAN_POINT ( 'NONE',  ( 0.0000000000000000000, 0.0000000000000000000, -0.1562500000000000000 ) ) ;
#112 = FILL_AREA_STYLE ('',( #85 ) ) ;
#113 = LENGTH_MEASURE_WITH_UNIT ( LENGTH_MEASURE( 0.02539999999999999897 ), #186 );
#114 = CARTESIAN_POINT ( 'NONE',  ( 0.0000000000000000000, 0.5000000000000000000, -0.1250000000000000000 ) ) ;
#115 = AXIS2_PLACEMENT_3D ( 'NONE', #57, #39, #22 ) ;
#116 = CIRCLE ( 'NONE', #117, 0.1562500000000000000 ) ;
#117 = AXIS2_PLACEMENT_3D ( 'NONE', #212, #43, #127 ) ;
#118 =( CONVERSION_BASED_UNIT ( 'INCH', #113 ) LENGTH_UNIT ( ) NAMED_UNIT ( #174 ) );
#119 = VERTEX_POINT ( 'NONE', #111 ) ;
#120 = CLOSED_SHELL ( 'NONE', ( #195, #171, #128, #48, #78, #33 ) ) ;
#121 = CYLINDRICAL_SURFACE ( 'NONE', #110, 0.1562500000000000000 ) ;
#122 =( NAMED_UNIT ( * ) PLANE_ANGLE_UNIT ( ) SI_UNIT ( $, .RADIAN. ) );
#123 = DIRECTION ( 'NONE',  ( 0.0000000000000000000, 0.0000000000000000000, -1.000000000000000000 ) ) ;
#124 = VECTOR ( 'NONE', #139, 39.37007874015748143 ) ;
#125 = LENGTH_MEASURE_WITH_UNIT ( LENGTH_MEASURE( 0.02539999999999999897 ), #136 );
#126 = STYLED_ITEM ( 'NONE', ( #98 ), #157 ) ;
#127 = DIRECTION ( 'NONE',  ( 0.0000000000000000000, 0.0000000000000000000, 1.000000000000000000 ) ) ;
#128 = ADVANCED_FACE ( 'NONE', ( #100, #35 ), #51, .T. ) ;
#129 = AXIS2_PLACEMENT_3D ( 'NONE', #220, #221, #177 ) ;
#130 = ORIENTED_EDGE ( 'NONE', *, *, #203, .T. ) ;
#131 =( LENGTH_UNIT ( ) NAMED_UNIT ( * ) SI_UNIT ( $, .METRE. ) );
#132 = CYLINDRICAL_SURFACE ( 'NONE', #52, 0.1562500000000000000 ) ;
#133 = STYLED_ITEM ( 'NONE', ( #202 ), #1 ) ;
#134 = AXIS2_PLACEMENT_3D ( 'NONE', #58, #215, #29 ) ;
#135 = COLOUR_RGB ( '',0.6196078431372549211, 0.4117647058823529216, 0.2000000000000000111 ) ;
#136 =( LENGTH_UNIT ( ) NAMED_UNIT ( * ) SI_UNIT ( $, .METRE. ) );
#137 = DIRECTION ( 'NONE',  ( -0.0000000000000000000, -1.000000000000000000, -0.0000000000000000000 ) ) ;
#138 = ORIENTED_EDGE ( 'NONE', *, *, #163, .F. ) ;
#139 = DIRECTION ( 'NONE',  ( -0.0000000000000000000, -1.000000000000000000, -0.0000000000000000000 ) ) ;
#140 = CARTESIAN_POINT ( 'NONE',  ( 0.0000000000000000000, 0.5000000000000000000, 0.0000000000000000000 ) ) ;
#141 = EDGE_LOOP ( 'NONE', ( #4, #153 ) ) ;
#142 = DIRECTION ( 'NONE',  ( -0.0000000000000000000, -1.000000000000000000, -0.0000000000000000000 ) ) ;
#143 = ORIENTED_EDGE ( 'NONE', *, *, #163, .T. ) ;
#144 = PRESENTATION_LAYER_ASSIGNMENT (  '', '', ( #133 ) ) ;
#145 = AXIS2_PLACEMENT_3D ( 'NONE', #166, #142, #31 ) ;
#146 = CYLINDRICAL_SURFACE ( 'NONE', #145, 0.1250000000000000000 ) ;
#147 = VERTEX_POINT ( 'NONE', #105 ) ;
#148 = CARTESIAN_POINT ( 'NONE',  ( 0.0000000000000000000, 0.5000000000000000000, 0.0000000000000000000 ) ) ;
#149 = SURFACE_STYLE_FILL_AREA ( #112 ) ;
#150 = FACE_BOUND ( 'NONE', #141, .T. ) ;
#151 = DIRECTION ( 'NONE',  ( -0.0000000000000000000, -1.000000000000000000, -0.0000000000000000000 ) ) ;
#152 = EDGE_CURVE ( 'NONE', #147, #72, #75, .T. ) ;
#153 = ORIENTED_EDGE ( 'NONE', *, *, #187, .T. ) ;
#154 =( CONVERSION_BASED_UNIT ( 'INCH', #125 ) LENGTH_UNIT ( ) NAMED_UNIT ( #97 ) );
#155 = CARTESIAN_POINT ( 'NONE',  ( 0.0000000000000000000, 0.5000000000000000000, -0.1562500000000000000 ) ) ;
#156 = EDGE_LOOP ( 'NONE', ( #201, #143, #205, #210 ) ) ;
#157 = ADVANCED_BREP_SHAPE_REPRESENTATION ( 'am-0283 0.25IN id, 5-16IN od, 0.5IN Long Bushing REV2', ( #1, #129 ), #196 ) ;
#158 = UNCERTAINTY_MEASURE_WITH_UNIT (LENGTH_MEASURE( 1.000000000000000082E-05 ), #154, 'distance_accuracy_value', 'NONE');
#159 = PRODUCT_RELATED_PRODUCT_CATEGORY ( 'part', '', ( #92 ) ) ;
#160 = LINE ( 'NONE', #114, #91 ) ;
#161 = AXIS2_PLACEMENT_3D ( 'NONE', #41, #178, #59 ) ;
#162 = DIRECTION ( 'NONE',  ( 0.0000000000000000000, 0.0000000000000000000, 1.000000000000000000 ) ) ;
#163 = EDGE_CURVE ( 'NONE', #72, #93, #37, .T. ) ;
#164 = ORIENTED_EDGE ( 'NONE', *, *, #168, .F. ) ;
#165 = VERTEX_POINT ( 'NONE', #10 ) ;
#166 = CARTESIAN_POINT ( 'NONE',  ( 0.0000000000000000000, 0.5000000000000000000, 0.0000000000000000000 ) ) ;
#167 = ORIENTED_EDGE ( 'NONE', *, *, #193, .T. ) ;
#168 = EDGE_CURVE ( 'NONE', #54, #165, #68, .T. ) ;
#169 = CARTESIAN_POINT ( 'NONE',  ( 1.530808498934191509E-17, 0.0000000000000000000, 0.1250000000000000000 ) ) ;
#170 = CARTESIAN_POINT ( 'NONE',  ( 0.0000000000000000000, 0.5000000000000000000, 0.0000000000000000000 ) ) ;
#171 = ADVANCED_FACE ( 'NONE', ( #99 ), #121, .T. ) ;
#172 = AXIS2_PLACEMENT_3D ( 'NONE', #79, #218, #56 ) ;
#173 = ORIENTED_EDGE ( 'NONE', *, *, #222, .T. ) ;
#174 = DIMENSIONAL_EXPONENTS ( 1.000000000000000000, 0.0000000000000000000, 0.0000000000000000000, 0.0000000000000000000, 0.0000000000000000000, 0.0000000000000000000, 0.0000000000000000000 ) ;
#175 = CARTESIAN_POINT ( 'NONE',  ( 0.0000000000000000000, 0.0000000000000000000, -0.1250000000000000000 ) ) ;
#176 = CARTESIAN_POINT ( 'NONE',  ( 0.0000000000000000000, 0.5000000000000000000, 0.0000000000000000000 ) ) ;
#177 = DIRECTION ( 'NONE',  ( 1.000000000000000000, 0.0000000000000000000, 0.0000000000000000000 ) ) ;
#178 = DIRECTION ( 'NONE',  ( 0.0000000000000000000, 1.000000000000000000, 0.0000000000000000000 ) ) ;
#179 = COLOUR_RGB ( '',0.6196078431372549211, 0.4117647058823529216, 0.2000000000000000111 ) ;
#180 =( GEOMETRIC_REPRESENTATION_CONTEXT ( 3 ) GLOBAL_UNCERTAINTY_ASSIGNED_CONTEXT ( ( #84 ) ) GLOBAL_UNIT_ASSIGNED_CONTEXT ( ( #13, #30, #63 ) ) REPRESENTATION_CONTEXT ( 'NONE', 'WORKASPACE' ) );
#181 = FACE_OUTER_BOUND ( 'NONE', #87, .T. ) ;
#182 = ORIENTED_EDGE ( 'NONE', *, *, #7, .T. ) ;
#183 = ORIENTED_EDGE ( 'NONE', *, *, #187, .F. ) ;
#184 = AXIS2_PLACEMENT_3D ( 'NONE', #5, #214, #223 ) ;
#185 = UNCERTAINTY_MEASURE_WITH_UNIT (LENGTH_MEASURE( 1.000000000000000082E-05 ), #118, 'distance_accuracy_value', 'NONE');
#186 =( LENGTH_UNIT ( ) NAMED_UNIT ( * ) SI_UNIT ( $, .METRE. ) );
#187 = EDGE_CURVE ( 'NONE', #93, #206, #199, .T. ) ;
#188 = EDGE_CURVE ( 'NONE', #206, #93, #25, .T. ) ;
#189 = EDGE_LOOP ( 'NONE', ( #94, #50, #130, #182 ) ) ;
#190 =( NAMED_UNIT ( * ) SI_UNIT ( $, .STERADIAN. ) SOLID_ANGLE_UNIT ( ) );
#191 = ORIENTED_EDGE ( 'NONE', *, *, #16, .T. ) ;
#192 = PRODUCT_DEFINITION_SHAPE ( 'NONE', 'NONE',  #64 ) ;
#193 = EDGE_CURVE ( 'NONE', #72, #147, #77, .T. ) ;
#194 = PRESENTATION_LAYER_ASSIGNMENT (  '', '', ( #126 ) ) ;
#195 = ADVANCED_FACE ( 'NONE', ( #38 ), #81, .F. ) ;
#196 =( GEOMETRIC_REPRESENTATION_CONTEXT ( 3 ) GLOBAL_UNCERTAINTY_ASSIGNED_CONTEXT ( ( #185 ) ) GLOBAL_UNIT_ASSIGNED_CONTEXT ( ( #118, #122, #15 ) ) REPRESENTATION_CONTEXT ( 'NONE', 'WORKASPACE' ) );
#197 = CIRCLE ( 'NONE', #184, 0.1562500000000000000 ) ;
#198 = ORIENTED_EDGE ( 'NONE', *, *, #152, .F. ) ;
#199 = CIRCLE ( 'NONE', #67, 0.1250000000000000000 ) ;
#200 = LINE ( 'NONE', #155, #124 ) ;
#201 = ORIENTED_EDGE ( 'NONE', *, *, #152, .T. ) ;
#202 = PRESENTATION_STYLE_ASSIGNMENT (( #32 ) ) ;
#203 = EDGE_CURVE ( 'NONE', #165, #119, #200, .T. ) ;
#204 = AXIS2_PLACEMENT_3D ( 'NONE', #176, #18, #26 ) ;
#205 = ORIENTED_EDGE ( 'NONE', *, *, #188, .F. ) ;
#206 = VERTEX_POINT ( 'NONE', #175 ) ;
#207 = DIRECTION ( 'NONE',  ( -0.0000000000000000000, -1.000000000000000000, -0.0000000000000000000 ) ) ;
#208 = LENGTH_MEASURE_WITH_UNIT ( LENGTH_MEASURE( 0.02539999999999999897 ), #131 );
#209 = MECHANICAL_DESIGN_GEOMETRIC_PRESENTATION_REPRESENTATION (  '', ( #133 ), #180 ) ;
#210 = ORIENTED_EDGE ( 'NONE', *, *, #45, .F. ) ;
#211 = DIRECTION ( 'NONE',  ( 0.0000000000000000000, 0.0000000000000000000, 1.000000000000000000 ) ) ;
#212 = CARTESIAN_POINT ( 'NONE',  ( 0.0000000000000000000, 0.0000000000000000000, 0.0000000000000000000 ) ) ;
#213 = CARTESIAN_POINT ( 'NONE',  ( 1.530808498934191509E-17, 0.5000000000000000000, 0.1250000000000000000 ) ) ;
#214 = DIRECTION ( 'NONE',  ( 0.0000000000000000000, 1.000000000000000000, 0.0000000000000000000 ) ) ;
#215 = DIRECTION ( 'NONE',  ( 0.0000000000000000000, 1.000000000000000000, 0.0000000000000000000 ) ) ;
#216 = CARTESIAN_POINT ( 'NONE',  ( 1.530808498934191509E-17, 0.5000000000000000000, 0.1250000000000000000 ) ) ;
#217 = FACE_OUTER_BOUND ( 'NONE', #189, .T. ) ;
#218 = DIRECTION ( 'NONE',  ( 0.0000000000000000000, 1.000000000000000000, 0.0000000000000000000 ) ) ;
#219 = PRODUCT_DEFINITION_FORMATION_WITH_SPECIFIED_SOURCE ( 'ANY', '', #92, .NOT_KNOWN. ) ;
#220 = CARTESIAN_POINT ( 'NONE',  ( 0.0000000000000000000, 0.0000000000000000000, 0.0000000000000000000 ) ) ;
#221 = DIRECTION ( 'NONE',  ( 0.0000000000000000000, 0.0000000000000000000, 1.000000000000000000 ) ) ;
#222 = EDGE_CURVE ( 'NONE', #20, #119, #197, .T. ) ;
#223 = DIRECTION ( 'NONE',  ( 0.0000000000000000000, 0.0000000000000000000, 1.000000000000000000 ) ) ;
ENDSEC;
END-ISO-10303-21;
