ISO-10303-21;
HEADER;
FILE_DESCRIPTION (( 'STEP AP214' ),
    '1' );
FILE_NAME ('am-0452 500x625x765 spacer REV2.STEP',
    '2018-07-24T15:45:21',
    ( '' ),
    ( '' ),
    'SwSTEP 2.0',
    'SolidWorks 2018',
    '' );
FILE_SCHEMA (( 'AUTOMOTIVE_DESIGN' ));
ENDSEC;

DATA;
#1 = CARTESIAN_POINT ( 'NONE',  ( -0.2925000000000009814, 0.0000000000000000000, 0.7650000000000000133 ) ) ;
#2 = CIRCLE ( 'NONE', #263, 0.3125000000000000000 ) ;
#3 = CARTESIAN_POINT ( 'NONE',  ( 0.0000000000000000000, 0.0000000000000000000, 0.0000000000000000000 ) ) ;
#4 = DIRECTION ( 'NONE',  ( -0.0000000000000000000, -0.0000000000000000000, -1.000000000000000000 ) ) ;
#5 = CIRCLE ( 'NONE', #250, 0.2924999999999992606 ) ;
#6 = ORIENTED_EDGE ( 'NONE', *, *, #170, .F. ) ;
#7 = DIRECTION ( 'NONE',  ( -0.0000000000000000000, -0.0000000000000000000, 1.000000000000000000 ) ) ;
#8 =( GEOMETRIC_REPRESENTATION_CONTEXT ( 3 ) GLOBAL_UNCERTAINTY_ASSIGNED_CONTEXT ( ( #310 ) ) GLOBAL_UNIT_ASSIGNED_CONTEXT ( ( #29, #278, #31 ) ) REPRESENTATION_CONTEXT ( 'NONE', 'WORKASPACE' ) );
#9 = EDGE_CURVE ( 'NONE', #157, #152, #171, .T. ) ;
#10 = LINE ( 'NONE', #175, #93 ) ;
#11 = PRODUCT_RELATED_PRODUCT_CATEGORY ( 'part', '', ( #322 ) ) ;
#12 = FACE_OUTER_BOUND ( 'NONE', #84, .T. ) ;
#13 = ORIENTED_EDGE ( 'NONE', *, *, #203, .F. ) ;
#14 = CYLINDRICAL_SURFACE ( 'NONE', #115, 0.3125000000000000000 ) ;
#15 = DIRECTION ( 'NONE',  ( 0.0000000000000000000, 0.0000000000000000000, 1.000000000000000000 ) ) ;
#16 = VERTEX_POINT ( 'NONE', #169 ) ;
#17 = PRODUCT_DEFINITION_CONTEXT ( 'detailed design', #303, 'design' ) ;
#18 = CARTESIAN_POINT ( 'NONE',  ( 0.0000000000000000000, 0.0000000000000000000, 0.7650000000000000133 ) ) ;
#19 = STYLED_ITEM ( 'NONE', ( #242 ), #230 ) ;
#20 = ADVANCED_FACE ( 'NONE', ( #264 ), #14, .T. ) ;
#21 = DIRECTION ( 'NONE',  ( 0.0000000000000000000, 0.0000000000000000000, 1.000000000000000000 ) ) ;
#22 = LENGTH_MEASURE_WITH_UNIT ( LENGTH_MEASURE( 0.02539999999999999897 ), #96 );
#23 = EDGE_LOOP ( 'NONE', ( #148, #34 ) ) ;
#24 = EDGE_CURVE ( 'NONE', #286, #104, #128, .T. ) ;
#25 = CARTESIAN_POINT ( 'NONE',  ( -0.3125000000000000000, 3.827021247335478926E-17, 0.02000000000000074288 ) ) ;
#26 = CARTESIAN_POINT ( 'NONE',  ( 0.2924999999999992606, 0.0000000000000000000, 0.0000000000000000000 ) ) ;
#27 = DIRECTION ( 'NONE',  ( 1.000000000000000000, 0.0000000000000000000, 0.0000000000000000000 ) ) ;
#28 = CIRCLE ( 'NONE', #224, 0.3125000000000000000 ) ;
#29 =( CONVERSION_BASED_UNIT ( 'INCH', #22 ) LENGTH_UNIT ( ) NAMED_UNIT ( #261 ) );
#30 = ORIENTED_EDGE ( 'NONE', *, *, #92, .T. ) ;
#31 =( NAMED_UNIT ( * ) SI_UNIT ( $, .STERADIAN. ) SOLID_ANGLE_UNIT ( ) );
#32 = SURFACE_SIDE_STYLE ('',( #279 ) ) ;
#33 = VERTEX_POINT ( 'NONE', #196 ) ;
#34 = ORIENTED_EDGE ( 'NONE', *, *, #78, .F. ) ;
#35 = AXIS2_PLACEMENT_3D ( 'NONE', #299, #21, #243 ) ;
#36 = VERTEX_POINT ( 'NONE', #255 ) ;
#37 = DIRECTION ( 'NONE',  ( -1.000000000000000000, 0.0000000000000000000, 0.0000000000000000000 ) ) ;
#38 = AXIS2_PLACEMENT_3D ( 'NONE', #291, #176, #267 ) ;
#39 = CARTESIAN_POINT ( 'NONE',  ( -0.3125000000000000000, 0.0000000000000000000, 0.7650000000000000133 ) ) ;
#40 = COLOUR_RGB ( '',0.7921568627450980005, 0.8196078431372548767, 0.9333333333333333481 ) ;
#41 = PRESENTATION_STYLE_ASSIGNMENT (( #288 ) ) ;
#42 = ORIENTED_EDGE ( 'NONE', *, *, #203, .T. ) ;
#43 = DIRECTION ( 'NONE',  ( 0.0000000000000000000, 0.0000000000000000000, 1.000000000000000000 ) ) ;
#44 = UNCERTAINTY_MEASURE_WITH_UNIT (LENGTH_MEASURE( 1.000000000000000082E-05 ), #229, 'distance_accuracy_value', 'NONE');
#45 = EDGE_CURVE ( 'NONE', #152, #157, #204, .T. ) ;
#46 = ORIENTED_EDGE ( 'NONE', *, *, #182, .F. ) ;
#47 = DIRECTION ( 'NONE',  ( 0.0000000000000000000, 0.0000000000000000000, -1.000000000000000000 ) ) ;
#48 = DIRECTION ( 'NONE',  ( -1.000000000000000000, 0.0000000000000000000, 0.0000000000000000000 ) ) ;
#49 = CARTESIAN_POINT ( 'NONE',  ( -0.2925000000000009814, 0.0000000000000000000, 0.7650000000000000133 ) ) ;
#50 = CARTESIAN_POINT ( 'NONE',  ( 0.0000000000000000000, 0.0000000000000000000, 0.7650000000000000133 ) ) ;
#51 = PRESENTATION_LAYER_ASSIGNMENT (  '', '', ( #19 ) ) ;
#52 = EDGE_CURVE ( 'NONE', #193, #104, #10, .T. ) ;
#53 = FACE_OUTER_BOUND ( 'NONE', #108, .T. ) ;
#54 = LINE ( 'NONE', #39, #107 ) ;
#55 = ORIENTED_EDGE ( 'NONE', *, *, #323, .F. ) ;
#56 = MANIFOLD_SOLID_BREP ( 'Chamfer2', #256 ) ;
#57 = AXIS2_PLACEMENT_3D ( 'NONE', #241, #159, #91 ) ;
#58 = VECTOR ( 'NONE', #268, 39.37007874015748854 ) ;
#59 = CARTESIAN_POINT ( 'NONE',  ( 0.0000000000000000000, 0.0000000000000000000, 0.7650000000000000133 ) ) ;
#60 = ORIENTED_EDGE ( 'NONE', *, *, #156, .T. ) ;
#61 = CARTESIAN_POINT ( 'NONE',  ( 0.0000000000000000000, 0.0000000000000000000, 0.7650000000000000133 ) ) ;
#62 = DIRECTION ( 'NONE',  ( 1.000000000000000000, 0.0000000000000000000, 0.0000000000000000000 ) ) ;
#63 = DIRECTION ( 'NONE',  ( 0.0000000000000000000, 0.0000000000000000000, -1.000000000000000000 ) ) ;
#64 = CARTESIAN_POINT ( 'NONE',  ( -0.3125000000000000000, 0.0000000000000000000, 0.7450000000000006617 ) ) ;
#65 = FACE_OUTER_BOUND ( 'NONE', #132, .T. ) ;
#66 = ADVANCED_FACE ( 'NONE', ( #137, #223 ), #319, .T. ) ;
#67 = CARTESIAN_POINT ( 'NONE',  ( 0.0000000000000000000, 0.0000000000000000000, 0.0000000000000000000 ) ) ;
#68 = PRODUCT_DEFINITION_FORMATION_WITH_SPECIFIED_SOURCE ( 'ANY', '', #322, .NOT_KNOWN. ) ;
#69 = DIRECTION ( 'NONE',  ( 0.0000000000000000000, 0.0000000000000000000, -1.000000000000000000 ) ) ;
#70 = ORIENTED_EDGE ( 'NONE', *, *, #81, .F. ) ;
#71 = DIRECTION ( 'NONE',  ( 1.000000000000000000, 0.0000000000000000000, 0.0000000000000000000 ) ) ;
#72 = ORIENTED_EDGE ( 'NONE', *, *, #323, .T. ) ;
#73 = AXIS2_PLACEMENT_3D ( 'NONE', #119, #188, #71 ) ;
#74 = EDGE_CURVE ( 'NONE', #33, #90, #147, .T. ) ;
#75 = FACE_OUTER_BOUND ( 'NONE', #245, .T. ) ;
#76 = ORIENTED_EDGE ( 'NONE', *, *, #81, .T. ) ;
#77 = UNCERTAINTY_MEASURE_WITH_UNIT (LENGTH_MEASURE( 1.000000000000000082E-05 ), #305, 'distance_accuracy_value', 'NONE');
#78 = EDGE_CURVE ( 'NONE', #90, #33, #292, .T. ) ;
#79 = ORIENTED_EDGE ( 'NONE', *, *, #313, .F. ) ;
#80 = FACE_OUTER_BOUND ( 'NONE', #228, .T. ) ;
#81 = EDGE_CURVE ( 'NONE', #316, #104, #127, .T. ) ;
#82 = CARTESIAN_POINT ( 'NONE',  ( 0.0000000000000000000, 0.0000000000000000000, 0.7450000000000006617 ) ) ;
#83 = CIRCLE ( 'NONE', #296, 0.2924999999999992606 ) ;
#84 = EDGE_LOOP ( 'NONE', ( #172, #117, #277, #13 ) ) ;
#85 = CARTESIAN_POINT ( 'NONE',  ( 0.2500000000000000000, 3.061616997868382402E-17, 0.7650000000000000133 ) ) ;
#86 = DIRECTION ( 'NONE',  ( -1.000000000000000000, 0.0000000000000000000, 0.0000000000000000000 ) ) ;
#87 = DIRECTION ( 'NONE',  ( -0.0000000000000000000, -0.0000000000000000000, -1.000000000000000000 ) ) ;
#88 = DIRECTION ( 'NONE',  ( 0.0000000000000000000, 0.0000000000000000000, 1.000000000000000000 ) ) ;
#89 = FACE_BOUND ( 'NONE', #293, .T. ) ;
#90 = VERTEX_POINT ( 'NONE', #85 ) ;
#91 = DIRECTION ( 'NONE',  ( 1.000000000000000000, 0.0000000000000000000, 0.0000000000000000000 ) ) ;
#92 = EDGE_CURVE ( 'NONE', #95, #316, #28, .T. ) ;
#93 = VECTOR ( 'NONE', #202, 39.37007874015748854 ) ;
#94 = CARTESIAN_POINT ( 'NONE',  ( -0.3125000000000000000, 0.0000000000000000000, 0.02000000000000074288 ) ) ;
#95 = VERTEX_POINT ( 'NONE', #64 ) ;
#96 =( LENGTH_UNIT ( ) NAMED_UNIT ( * ) SI_UNIT ( $, .METRE. ) );
#97 = CARTESIAN_POINT ( 'NONE',  ( 0.0000000000000000000, 0.0000000000000000000, 0.02000000000000074288 ) ) ;
#98 = VECTOR ( 'NONE', #4, 39.37007874015748143 ) ;
#99 = ORIENTED_EDGE ( 'NONE', *, *, #92, .F. ) ;
#100 = DIRECTION ( 'NONE',  ( 0.7071067811865414665, 8.659560562354858902E-17, -0.7071067811865535679 ) ) ;
#101 = CYLINDRICAL_SURFACE ( 'NONE', #320, 0.3125000000000000000 ) ;
#102 = ORIENTED_EDGE ( 'NONE', *, *, #52, .F. ) ;
#103 = AXIS2_PLACEMENT_3D ( 'NONE', #143, #164, #216 ) ;
#104 = VERTEX_POINT ( 'NONE', #153 ) ;
#105 = CONICAL_SURFACE ( 'NONE', #73, 0.3125000000000000000, 0.7853981633974482790 ) ;
#106 = CARTESIAN_POINT ( 'NONE',  ( 0.0000000000000000000, 0.0000000000000000000, 0.0000000000000000000 ) ) ;
#107 = VECTOR ( 'NONE', #151, 39.37007874015748143 ) ;
#108 = EDGE_LOOP ( 'NONE', ( #46, #195, #302, #166 ) ) ;
#109 = AXIS2_PLACEMENT_3D ( 'NONE', #61, #131, #231 ) ;
#110 = DIRECTION ( 'NONE',  ( -1.000000000000000000, 0.0000000000000000000, 0.0000000000000000000 ) ) ;
#111 = ORIENTED_EDGE ( 'NONE', *, *, #254, .T. ) ;
#112 =( NAMED_UNIT ( * ) PLANE_ANGLE_UNIT ( ) SI_UNIT ( $, .RADIAN. ) );
#113 = ADVANCED_FACE ( 'NONE', ( #65 ), #122, .T. ) ;
#114 = CARTESIAN_POINT ( 'NONE',  ( -0.2500000000000000000, 0.0000000000000000000, 0.7650000000000000133 ) ) ;
#115 = AXIS2_PLACEMENT_3D ( 'NONE', #59, #173, #37 ) ;
#116 = CYLINDRICAL_SURFACE ( 'NONE', #163, 0.2500000000000000000 ) ;
#117 = ORIENTED_EDGE ( 'NONE', *, *, #284, .T. ) ;
#118 = DIRECTION ( 'NONE',  ( 1.000000000000000000, 0.0000000000000000000, -0.0000000000000000000 ) ) ;
#119 = CARTESIAN_POINT ( 'NONE',  ( 0.0000000000000000000, 0.0000000000000000000, 0.02000000000000074288 ) ) ;
#120 = APPLICATION_PROTOCOL_DEFINITION ( 'draft international standard', 'automotive_design', 1998, #303 ) ;
#121 = PRODUCT_DEFINITION ( 'UNKNOWN', '', #68, #17 ) ;
#122 = CONICAL_SURFACE ( 'NONE', #247, 0.2925000000000009814, 0.7853981633974397303 ) ;
#123 = SURFACE_STYLE_USAGE ( .BOTH. , #32 ) ;
#124 = PRODUCT_CONTEXT ( 'NONE', #276, 'mechanical' ) ;
#125 = VECTOR ( 'NONE', #100, 39.37007874015748143 ) ;
#126 = ORIENTED_EDGE ( 'NONE', *, *, #170, .T. ) ;
#127 = LINE ( 'NONE', #321, #308 ) ;
#128 = CIRCLE ( 'NONE', #38, 0.3125000000000000000 ) ;
#129 = DIRECTION ( 'NONE',  ( 1.000000000000000000, 0.0000000000000000000, 0.0000000000000000000 ) ) ;
#130 = STYLED_ITEM ( 'NONE', ( #41 ), #56 ) ;
#131 = DIRECTION ( 'NONE',  ( 0.0000000000000000000, 0.0000000000000000000, 1.000000000000000000 ) ) ;
#132 = EDGE_LOOP ( 'NONE', ( #55, #215, #191, #205 ) ) ;
#133 = PRODUCT_DEFINITION_SHAPE ( 'NONE', 'NONE',  #121 ) ;
#134 =( NAMED_UNIT ( * ) SI_UNIT ( $, .STERADIAN. ) SOLID_ANGLE_UNIT ( ) );
#135 = ADVANCED_FACE ( 'NONE', ( #12 ), #116, .F. ) ;
#136 = DIRECTION ( 'NONE',  ( -0.0000000000000000000, -0.0000000000000000000, -1.000000000000000000 ) ) ;
#137 = FACE_OUTER_BOUND ( 'NONE', #190, .T. ) ;
#138 = DIRECTION ( 'NONE',  ( -1.000000000000000000, 0.0000000000000000000, 0.0000000000000000000 ) ) ;
#139 = DIMENSIONAL_EXPONENTS ( 1.000000000000000000, 0.0000000000000000000, 0.0000000000000000000, 0.0000000000000000000, 0.0000000000000000000, 0.0000000000000000000, 0.0000000000000000000 ) ;
#140 =( GEOMETRIC_REPRESENTATION_CONTEXT ( 3 ) GLOBAL_UNCERTAINTY_ASSIGNED_CONTEXT ( ( #44 ) ) GLOBAL_UNIT_ASSIGNED_CONTEXT ( ( #229, #112, #134 ) ) REPRESENTATION_CONTEXT ( 'NONE', 'WORKASPACE' ) );
#141 = ORIENTED_EDGE ( 'NONE', *, *, #154, .T. ) ;
#142 = ORIENTED_EDGE ( 'NONE', *, *, #221, .F. ) ;
#143 = CARTESIAN_POINT ( 'NONE',  ( 0.0000000000000000000, 0.0000000000000000000, 0.0000000000000000000 ) ) ;
#144 = FILL_AREA_STYLE_COLOUR ( '', #40 ) ;
#145 = FACE_OUTER_BOUND ( 'NONE', #162, .T. ) ;
#146 =( LENGTH_UNIT ( ) NAMED_UNIT ( * ) SI_UNIT ( $, .METRE. ) );
#147 = CIRCLE ( 'NONE', #109, 0.2500000000000000000 ) ;
#148 = ORIENTED_EDGE ( 'NONE', *, *, #74, .F. ) ;
#149 = LINE ( 'NONE', #114, #98 ) ;
#150 = ORIENTED_EDGE ( 'NONE', *, *, #9, .T. ) ;
#151 = DIRECTION ( 'NONE',  ( -0.0000000000000000000, -0.0000000000000000000, -1.000000000000000000 ) ) ;
#152 = VERTEX_POINT ( 'NONE', #265 ) ;
#153 = CARTESIAN_POINT ( 'NONE',  ( 0.3125000000000000000, 3.827021247335477694E-17, 0.02000000000000074288 ) ) ;
#154 = EDGE_CURVE ( 'NONE', #193, #36, #5, .T. ) ;
#155 = DIRECTION ( 'NONE',  ( -0.0000000000000000000, -0.0000000000000000000, -1.000000000000000000 ) ) ;
#156 = EDGE_CURVE ( 'NONE', #95, #286, #54, .T. ) ;
#157 = VERTEX_POINT ( 'NONE', #259 ) ;
#158 = DIRECTION ( 'NONE',  ( -0.7071067811865414665, 0.0000000000000000000, -0.7071067811865535679 ) ) ;
#159 = DIRECTION ( 'NONE',  ( -0.0000000000000000000, -0.0000000000000000000, 1.000000000000000000 ) ) ;
#160 = DIMENSIONAL_EXPONENTS ( 1.000000000000000000, 0.0000000000000000000, 0.0000000000000000000, 0.0000000000000000000, 0.0000000000000000000, 0.0000000000000000000, 0.0000000000000000000 ) ;
#161 = ORIENTED_EDGE ( 'NONE', *, *, #24, .T. ) ;
#162 = EDGE_LOOP ( 'NONE', ( #70, #111, #60, #161 ) ) ;
#163 = AXIS2_PLACEMENT_3D ( 'NONE', #179, #155, #110 ) ;
#164 = DIRECTION ( 'NONE',  ( 0.0000000000000000000, 0.0000000000000000000, 1.000000000000000000 ) ) ;
#165 = LINE ( 'NONE', #248, #125 ) ;
#166 = ORIENTED_EDGE ( 'NONE', *, *, #24, .F. ) ;
#167 = COLOUR_RGB ( '',0.7921568627450980005, 0.8196078431372548767, 0.9333333333333333481 ) ;
#168 = AXIS2_PLACEMENT_3D ( 'NONE', #317, #43, #226 ) ;
#169 = CARTESIAN_POINT ( 'NONE',  ( 0.2925000000000009814, 3.704556567420750040E-17, 0.7650000000000000133 ) ) ;
#170 = EDGE_CURVE ( 'NONE', #16, #197, #315, .T. ) ;
#171 = CIRCLE ( 'NONE', #238, 0.2500000000000000000 ) ;
#172 = ORIENTED_EDGE ( 'NONE', *, *, #74, .T. ) ;
#173 = DIRECTION ( 'NONE',  ( -0.0000000000000000000, -0.0000000000000000000, -1.000000000000000000 ) ) ;
#174 = ORIENTED_EDGE ( 'NONE', *, *, #313, .T. ) ;
#175 = CARTESIAN_POINT ( 'NONE',  ( 0.3125000000000000000, 0.0000000000000000000, 0.02000000000000074288 ) ) ;
#176 = DIRECTION ( 'NONE',  ( -0.0000000000000000000, -0.0000000000000000000, 1.000000000000000000 ) ) ;
#177 = FILL_AREA_STYLE_COLOUR ( '', #167 ) ;
#178 = LINE ( 'NONE', #25, #58 ) ;
#179 = CARTESIAN_POINT ( 'NONE',  ( 0.0000000000000000000, 0.0000000000000000000, 0.7650000000000000133 ) ) ;
#180 = MECHANICAL_DESIGN_GEOMETRIC_PRESENTATION_REPRESENTATION (  '', ( #19 ), #304 ) ;
#181 = DIRECTION ( 'NONE',  ( -0.0000000000000000000, -0.0000000000000000000, -1.000000000000000000 ) ) ;
#182 = EDGE_CURVE ( 'NONE', #36, #286, #178, .T. ) ;
#183 = CARTESIAN_POINT ( 'NONE',  ( 0.0000000000000000000, 0.0000000000000000000, 0.7650000000000000133 ) ) ;
#184 = ADVANCED_FACE ( 'NONE', ( #80 ), #219, .T. ) ;
#185 = DIRECTION ( 'NONE',  ( -0.0000000000000000000, -0.0000000000000000000, -1.000000000000000000 ) ) ;
#186 = LINE ( 'NONE', #274, #222 ) ;
#187 = CARTESIAN_POINT ( 'NONE',  ( 0.0000000000000000000, 0.0000000000000000000, 0.7650000000000000133 ) ) ;
#188 = DIRECTION ( 'NONE',  ( -0.0000000000000000000, -0.0000000000000000000, 1.000000000000000000 ) ) ;
#189 = AXIS2_PLACEMENT_3D ( 'NONE', #262, #207, #314 ) ;
#190 = EDGE_LOOP ( 'NONE', ( #227, #126 ) ) ;
#191 = ORIENTED_EDGE ( 'NONE', *, *, #221, .T. ) ;
#192 = APPLICATION_PROTOCOL_DEFINITION ( 'draft international standard', 'automotive_design', 1998, #276 ) ;
#193 = VERTEX_POINT ( 'NONE', #26 ) ;
#194 = EDGE_CURVE ( 'NONE', #36, #193, #83, .T. ) ;
#195 = ORIENTED_EDGE ( 'NONE', *, *, #154, .F. ) ;
#196 = CARTESIAN_POINT ( 'NONE',  ( -0.2500000000000000000, 0.0000000000000000000, 0.7650000000000000133 ) ) ;
#197 = VERTEX_POINT ( 'NONE', #49 ) ;
#198 = CARTESIAN_POINT ( 'NONE',  ( 0.0000000000000000000, 0.0000000000000000000, 0.0000000000000000000 ) ) ;
#199 = EDGE_CURVE ( 'NONE', #197, #16, #300, .T. ) ;
#200 = DIRECTION ( 'NONE',  ( 1.000000000000000000, 0.0000000000000000000, 0.0000000000000000000 ) ) ;
#201 =( LENGTH_UNIT ( ) NAMED_UNIT ( * ) SI_UNIT ( $, .METRE. ) );
#202 = DIRECTION ( 'NONE',  ( 0.7071067811865474617, 0.0000000000000000000, 0.7071067811865474617 ) ) ;
#203 = EDGE_CURVE ( 'NONE', #33, #152, #149, .T. ) ;
#204 = CIRCLE ( 'NONE', #208, 0.2500000000000000000 ) ;
#205 = ORIENTED_EDGE ( 'NONE', *, *, #254, .F. ) ;
#206 = ADVANCED_FACE ( 'NONE', ( #282 ), #281, .T. ) ;
#207 = DIRECTION ( 'NONE',  ( 0.0000000000000000000, 0.0000000000000000000, 1.000000000000000000 ) ) ;
#208 = AXIS2_PLACEMENT_3D ( 'NONE', #106, #15, #62 ) ;
#209 = LINE ( 'NONE', #1, #290 ) ;
#210 = ORIENTED_EDGE ( 'NONE', *, *, #156, .F. ) ;
#211 = CARTESIAN_POINT ( 'NONE',  ( 0.0000000000000000000, 0.0000000000000000000, 0.7450000000000006617 ) ) ;
#212 = CARTESIAN_POINT ( 'NONE',  ( 0.0000000000000000000, 0.0000000000000000000, 0.7650000000000000133 ) ) ;
#213 = DIRECTION ( 'NONE',  ( 1.000000000000000000, 0.0000000000000000000, 0.0000000000000000000 ) ) ;
#214 = ORIENTED_EDGE ( 'NONE', *, *, #45, .T. ) ;
#215 = ORIENTED_EDGE ( 'NONE', *, *, #199, .F. ) ;
#216 = DIRECTION ( 'NONE',  ( 1.000000000000000000, 0.0000000000000000000, 0.0000000000000000000 ) ) ;
#217 = AXIS2_PLACEMENT_3D ( 'NONE', #50, #47, #271 ) ;
#218 = FILL_AREA_STYLE ('',( #144 ) ) ;
#219 = CONICAL_SURFACE ( 'NONE', #217, 0.2925000000000009814, 0.7853981633974397303 ) ;
#220 = ORIENTED_EDGE ( 'NONE', *, *, #194, .T. ) ;
#221 = EDGE_CURVE ( 'NONE', #197, #95, #209, .T. ) ;
#222 = VECTOR ( 'NONE', #185, 39.37007874015748143 ) ;
#223 = FACE_BOUND ( 'NONE', #23, .T. ) ;
#224 = AXIS2_PLACEMENT_3D ( 'NONE', #82, #63, #294 ) ;
#225 = SHAPE_DEFINITION_REPRESENTATION ( #133, #230 ) ;
#226 = DIRECTION ( 'NONE',  ( 1.000000000000000000, 0.0000000000000000000, -0.0000000000000000000 ) ) ;
#227 = ORIENTED_EDGE ( 'NONE', *, *, #199, .T. ) ;
#228 = EDGE_LOOP ( 'NONE', ( #6, #72, #99, #142 ) ) ;
#229 =( CONVERSION_BASED_UNIT ( 'INCH', #253 ) LENGTH_UNIT ( ) NAMED_UNIT ( #139 ) );
#230 = ADVANCED_BREP_SHAPE_REPRESENTATION ( 'am-0452 500x625x765 spacer REV2', ( #56, #103 ), #8 ) ;
#231 = DIRECTION ( 'NONE',  ( 1.000000000000000000, 0.0000000000000000000, 0.0000000000000000000 ) ) ;
#232 = DIRECTION ( 'NONE',  ( 0.0000000000000000000, 0.0000000000000000000, -1.000000000000000000 ) ) ;
#233 = CARTESIAN_POINT ( 'NONE',  ( 0.0000000000000000000, 0.0000000000000000000, 0.0000000000000000000 ) ) ;
#234 = AXIS2_PLACEMENT_3D ( 'NONE', #183, #181, #48 ) ;
#235 = CYLINDRICAL_SURFACE ( 'NONE', #234, 0.2500000000000000000 ) ;
#236 = ORIENTED_EDGE ( 'NONE', *, *, #9, .F. ) ;
#237 = DIRECTION ( 'NONE',  ( 1.000000000000000000, 0.0000000000000000000, 0.0000000000000000000 ) ) ;
#238 = AXIS2_PLACEMENT_3D ( 'NONE', #198, #287, #129 ) ;
#239 = DIRECTION ( 'NONE',  ( -0.0000000000000000000, -0.0000000000000000000, -1.000000000000000000 ) ) ;
#240 = ADVANCED_FACE ( 'NONE', ( #75, #89 ), #298, .F. ) ;
#241 = CARTESIAN_POINT ( 'NONE',  ( 0.0000000000000000000, 0.0000000000000000000, 0.02000000000000074288 ) ) ;
#242 = PRESENTATION_STYLE_ASSIGNMENT (( #123 ) ) ;
#243 = DIRECTION ( 'NONE',  ( 1.000000000000000000, 0.0000000000000000000, 0.0000000000000000000 ) ) ;
#244 = ADVANCED_FACE ( 'NONE', ( #285 ), #235, .F. ) ;
#245 = EDGE_LOOP ( 'NONE', ( #141, #220 ) ) ;
#246 = CARTESIAN_POINT ( 'NONE',  ( 0.3125000000000000000, 3.827021247335477694E-17, 0.7450000000000006617 ) ) ;
#247 = AXIS2_PLACEMENT_3D ( 'NONE', #18, #232, #86 ) ;
#248 = CARTESIAN_POINT ( 'NONE',  ( 0.2925000000000009814, 3.582091887506019921E-17, 0.7650000000000000133 ) ) ;
#249 = ORIENTED_EDGE ( 'NONE', *, *, #182, .T. ) ;
#250 = AXIS2_PLACEMENT_3D ( 'NONE', #233, #87, #200 ) ;
#251 = DIRECTION ( 'NONE',  ( 1.000000000000000000, 0.0000000000000000000, 0.0000000000000000000 ) ) ;
#252 =( NAMED_UNIT ( * ) PLANE_ANGLE_UNIT ( ) SI_UNIT ( $, .RADIAN. ) );
#253 = LENGTH_MEASURE_WITH_UNIT ( LENGTH_MEASURE( 0.02539999999999999897 ), #201 );
#254 = EDGE_CURVE ( 'NONE', #316, #95, #2, .T. ) ;
#255 = CARTESIAN_POINT ( 'NONE',  ( -0.2924999999999992606, 3.704556567420738947E-17, 0.0000000000000000000 ) ) ;
#256 = CLOSED_SHELL ( 'NONE', ( #184, #206, #135, #20, #66, #240, #297, #244, #269, #113 ) ) ;
#257 = AXIS2_PLACEMENT_3D ( 'NONE', #97, #7, #251 ) ;
#258 = EDGE_LOOP ( 'NONE', ( #283, #309, #42, #236 ) ) ;
#259 = CARTESIAN_POINT ( 'NONE',  ( 0.2500000000000000000, 3.061616997868382402E-17, 0.0000000000000000000 ) ) ;
#260 = DIRECTION ( 'NONE',  ( -0.0000000000000000000, -0.0000000000000000000, -1.000000000000000000 ) ) ;
#261 = DIMENSIONAL_EXPONENTS ( 1.000000000000000000, 0.0000000000000000000, 0.0000000000000000000, 0.0000000000000000000, 0.0000000000000000000, 0.0000000000000000000, 0.0000000000000000000 ) ;
#262 = CARTESIAN_POINT ( 'NONE',  ( 0.0000000000000000000, 0.0000000000000000000, 0.7650000000000000133 ) ) ;
#263 = AXIS2_PLACEMENT_3D ( 'NONE', #211, #69, #27 ) ;
#264 = FACE_OUTER_BOUND ( 'NONE', #306, .T. ) ;
#265 = CARTESIAN_POINT ( 'NONE',  ( -0.2500000000000000000, 0.0000000000000000000, 0.0000000000000000000 ) ) ;
#266 = AXIS2_PLACEMENT_3D ( 'NONE', #212, #88, #237 ) ;
#267 = DIRECTION ( 'NONE',  ( 1.000000000000000000, 0.0000000000000000000, 0.0000000000000000000 ) ) ;
#268 = DIRECTION ( 'NONE',  ( -0.7071067811865474617, 8.659560562354932858E-17, 0.7071067811865474617 ) ) ;
#269 = ADVANCED_FACE ( 'NONE', ( #53 ), #105, .T. ) ;
#270 = EDGE_LOOP ( 'NONE', ( #301, #249, #79, #102 ) ) ;
#271 = DIRECTION ( 'NONE',  ( -1.000000000000000000, 0.0000000000000000000, 0.0000000000000000000 ) ) ;
#272 = PRESENTATION_LAYER_ASSIGNMENT (  '', '', ( #130 ) ) ;
#273 = DIRECTION ( 'NONE',  ( 0.0000000000000000000, 0.0000000000000000000, 1.000000000000000000 ) ) ;
#274 = CARTESIAN_POINT ( 'NONE',  ( 0.2500000000000000000, 3.061616997868382402E-17, 0.7650000000000000133 ) ) ;
#275 = SURFACE_STYLE_FILL_AREA ( #318 ) ;
#276 = APPLICATION_CONTEXT ( 'automotive_design' ) ;
#277 = ORIENTED_EDGE ( 'NONE', *, *, #45, .F. ) ;
#278 =( NAMED_UNIT ( * ) PLANE_ANGLE_UNIT ( ) SI_UNIT ( $, .RADIAN. ) );
#279 = SURFACE_STYLE_FILL_AREA ( #218 ) ;
#280 =( NAMED_UNIT ( * ) SI_UNIT ( $, .STERADIAN. ) SOLID_ANGLE_UNIT ( ) );
#281 = CONICAL_SURFACE ( 'NONE', #57, 0.3125000000000000000, 0.7853981633974482790 ) ;
#282 = FACE_OUTER_BOUND ( 'NONE', #270, .T. ) ;
#283 = ORIENTED_EDGE ( 'NONE', *, *, #284, .F. ) ;
#284 = EDGE_CURVE ( 'NONE', #90, #157, #186, .T. ) ;
#285 = FACE_OUTER_BOUND ( 'NONE', #258, .T. ) ;
#286 = VERTEX_POINT ( 'NONE', #94 ) ;
#287 = DIRECTION ( 'NONE',  ( 0.0000000000000000000, 0.0000000000000000000, 1.000000000000000000 ) ) ;
#288 = SURFACE_STYLE_USAGE ( .BOTH. , #295 ) ;
#289 = MECHANICAL_DESIGN_GEOMETRIC_PRESENTATION_REPRESENTATION (  '', ( #130 ), #140 ) ;
#290 = VECTOR ( 'NONE', #158, 39.37007874015748143 ) ;
#291 = CARTESIAN_POINT ( 'NONE',  ( 0.0000000000000000000, 0.0000000000000000000, 0.02000000000000074288 ) ) ;
#292 = CIRCLE ( 'NONE', #189, 0.2500000000000000000 ) ;
#293 = EDGE_LOOP ( 'NONE', ( #214, #150 ) ) ;
#294 = DIRECTION ( 'NONE',  ( 1.000000000000000000, 0.0000000000000000000, 0.0000000000000000000 ) ) ;
#295 = SURFACE_SIDE_STYLE ('',( #275 ) ) ;
#296 = AXIS2_PLACEMENT_3D ( 'NONE', #3, #136, #213 ) ;
#297 = ADVANCED_FACE ( 'NONE', ( #145 ), #101, .T. ) ;
#298 = PLANE ( 'NONE',  #312 ) ;
#299 = CARTESIAN_POINT ( 'NONE',  ( 0.0000000000000000000, 0.0000000000000000000, 0.7650000000000000133 ) ) ;
#300 = CIRCLE ( 'NONE', #35, 0.2925000000000009814 ) ;
#301 = ORIENTED_EDGE ( 'NONE', *, *, #194, .F. ) ;
#302 = ORIENTED_EDGE ( 'NONE', *, *, #52, .T. ) ;
#303 = APPLICATION_CONTEXT ( 'automotive_design' ) ;
#304 =( GEOMETRIC_REPRESENTATION_CONTEXT ( 3 ) GLOBAL_UNCERTAINTY_ASSIGNED_CONTEXT ( ( #77 ) ) GLOBAL_UNIT_ASSIGNED_CONTEXT ( ( #305, #252, #280 ) ) REPRESENTATION_CONTEXT ( 'NONE', 'WORKASPACE' ) );
#305 =( CONVERSION_BASED_UNIT ( 'INCH', #307 ) LENGTH_UNIT ( ) NAMED_UNIT ( #160 ) );
#306 = EDGE_LOOP ( 'NONE', ( #30, #76, #174, #210 ) ) ;
#307 = LENGTH_MEASURE_WITH_UNIT ( LENGTH_MEASURE( 0.02539999999999999897 ), #146 );
#308 = VECTOR ( 'NONE', #260, 39.37007874015748143 ) ;
#309 = ORIENTED_EDGE ( 'NONE', *, *, #78, .T. ) ;
#310 = UNCERTAINTY_MEASURE_WITH_UNIT (LENGTH_MEASURE( 1.000000000000000082E-05 ), #29, 'distance_accuracy_value', 'NONE');
#311 = CIRCLE ( 'NONE', #257, 0.3125000000000000000 ) ;
#312 = AXIS2_PLACEMENT_3D ( 'NONE', #67, #273, #118 ) ;
#313 = EDGE_CURVE ( 'NONE', #104, #286, #311, .T. ) ;
#314 = DIRECTION ( 'NONE',  ( 1.000000000000000000, 0.0000000000000000000, 0.0000000000000000000 ) ) ;
#315 = CIRCLE ( 'NONE', #266, 0.2925000000000009814 ) ;
#316 = VERTEX_POINT ( 'NONE', #246 ) ;
#317 = CARTESIAN_POINT ( 'NONE',  ( 0.0000000000000000000, 0.0000000000000000000, 0.7650000000000000133 ) ) ;
#318 = FILL_AREA_STYLE ('',( #177 ) ) ;
#319 = PLANE ( 'NONE',  #168 ) ;
#320 = AXIS2_PLACEMENT_3D ( 'NONE', #187, #239, #138 ) ;
#321 = CARTESIAN_POINT ( 'NONE',  ( 0.3125000000000000000, 3.827021247335477694E-17, 0.7650000000000000133 ) ) ;
#322 = PRODUCT ( 'am-0452 500x625x765 spacer REV2', 'am-0452 500x625x765 spacer REV2', '', ( #124 ) ) ;
#323 = EDGE_CURVE ( 'NONE', #16, #316, #165, .T. ) ;
ENDSEC;
END-ISO-10303-21;
