ISO-10303-21;
HEADER;
FILE_DESCRIPTION (( 'STEP AP214' ),
    '1' );
FILE_NAME ('am-0947 Shoulder Spacer, 0500 id, 0625 od, 0500 long, nylon REV2.STEP',
    '2018-06-28T14:30:44',
    ( '' ),
    ( '' ),
    'SwSTEP 2.0',
    'SolidWorks 2017',
    '' );
FILE_SCHEMA (( 'AUTOMOTIVE_DESIGN' ));
ENDSEC;

DATA;
#1 = DIRECTION ( 'NONE',  ( -0.0000000000000000000, -0.0000000000000000000, 1.000000000000000000 ) ) ;
#2 = FACE_OUTER_BOUND ( 'NONE', #3, .T. ) ;
#3 = EDGE_LOOP ( 'NONE', ( #92, #193 ) ) ;
#4 = CARTESIAN_POINT ( 'NONE',  ( 0.0000000000000000000, 0.0000000000000000000, 0.0000000000000000000 ) ) ;
#5 = STYLED_ITEM ( 'NONE', ( #66 ), #229 ) ;
#6 = FILL_AREA_STYLE ('',( #225 ) ) ;
#7 = VECTOR ( 'NONE', #222, 39.37007874015748100 ) ;
#8 = FACE_BOUND ( 'NONE', #241, .T. ) ;
#9 = MECHANICAL_DESIGN_GEOMETRIC_PRESENTATION_REPRESENTATION (  '', ( #302 ), #28 ) ;
#10 = DIRECTION ( 'NONE',  ( -0.0000000000000000000, -0.0000000000000000000, 1.000000000000000000 ) ) ;
#11 = CIRCLE ( 'NONE', #35, 0.2500000000000002200 ) ;
#12 = ORIENTED_EDGE ( 'NONE', *, *, #105, .T. ) ;
#13 = DIRECTION ( 'NONE',  ( -0.0000000000000000000, -0.0000000000000000000, 1.000000000000000000 ) ) ;
#14 = CARTESIAN_POINT ( 'NONE',  ( 0.2500000000000002200, 0.0000000000000000000, 3.791200677927629700E-032 ) ) ;
#15 = VERTEX_POINT ( 'NONE', #236 ) ;
#16 =( NAMED_UNIT ( * ) SI_UNIT ( $, .STERADIAN. ) SOLID_ANGLE_UNIT ( ) );
#17 = CARTESIAN_POINT ( 'NONE',  ( 0.0000000000000000000, 0.0000000000000000000, -0.5699999999999999500 ) ) ;
#18 = CYLINDRICAL_SURFACE ( 'NONE', #102, 0.2500000000000001700 ) ;
#19 = EDGE_LOOP ( 'NONE', ( #176, #80, #141, #64 ) ) ;
#20 = AXIS2_PLACEMENT_3D ( 'NONE', #217, #289, #269 ) ;
#21 = DIRECTION ( 'NONE',  ( 1.000000000000000000, 0.0000000000000000000, 0.0000000000000000000 ) ) ;
#22 = DIRECTION ( 'NONE',  ( -0.0000000000000000000, -0.0000000000000000000, 1.000000000000000000 ) ) ;
#23 = AXIS2_PLACEMENT_3D ( 'NONE', #181, #179, #206 ) ;
#24 = APPLICATION_PROTOCOL_DEFINITION ( 'draft international standard', 'automotive_design', 1998, #276 ) ;
#25 = LINE ( 'NONE', #131, #175 ) ;
#26 = FACE_OUTER_BOUND ( 'NONE', #163, .T. ) ;
#27 = ORIENTED_EDGE ( 'NONE', *, *, #213, .T. ) ;
#28 =( GEOMETRIC_REPRESENTATION_CONTEXT ( 3 ) GLOBAL_UNCERTAINTY_ASSIGNED_CONTEXT ( ( #51 ) ) GLOBAL_UNIT_ASSIGNED_CONTEXT ( ( #169, #239, #16 ) ) REPRESENTATION_CONTEXT ( 'NONE', 'WORKASPACE' ) );
#29 = ORIENTED_EDGE ( 'NONE', *, *, #242, .T. ) ;
#30 =( CONVERSION_BASED_UNIT ( 'INCH', #290 ) LENGTH_UNIT ( ) NAMED_UNIT ( #136 ) );
#31 = MECHANICAL_DESIGN_GEOMETRIC_PRESENTATION_REPRESENTATION (  '', ( #5 ), #73 ) ;
#32 = CIRCLE ( 'NONE', #68, 0.2500000000000002200 ) ;
#33 = VECTOR ( 'NONE', #126, 39.37007874015748100 ) ;
#34 = CARTESIAN_POINT ( 'NONE',  ( 0.3125000000000002200, 0.0000000000000000000, -0.06199999999999997900 ) ) ;
#35 = AXIS2_PLACEMENT_3D ( 'NONE', #303, #41, #83 ) ;
#36 = SURFACE_STYLE_FILL_AREA ( #292 ) ;
#37 = SURFACE_SIDE_STYLE ('',( #36 ) ) ;
#38 = AXIS2_PLACEMENT_3D ( 'NONE', #135, #233, #253 ) ;
#39 = CARTESIAN_POINT ( 'NONE',  ( 0.0000000000000000000, 0.0000000000000000000, 0.0000000000000000000 ) ) ;
#40 = FACE_OUTER_BOUND ( 'NONE', #19, .T. ) ;
#41 = DIRECTION ( 'NONE',  ( -0.0000000000000000000, -0.0000000000000000000, 1.000000000000000000 ) ) ;
#42 = FACE_OUTER_BOUND ( 'NONE', #235, .T. ) ;
#43 = CARTESIAN_POINT ( 'NONE',  ( 0.0000000000000000000, 0.0000000000000000000, -0.06199999999999997900 ) ) ;
#44 = DIRECTION ( 'NONE',  ( -0.0000000000000000000, -0.0000000000000000000, 1.000000000000000000 ) ) ;
#45 = DIRECTION ( 'NONE',  ( -0.0000000000000000000, -0.0000000000000000000, 1.000000000000000000 ) ) ;
#46 = ADVANCED_FACE ( 'NONE', ( #8, #2 ), #237, .T. ) ;
#47 =( CONVERSION_BASED_UNIT ( 'INCH', #137 ) LENGTH_UNIT ( ) NAMED_UNIT ( #147 ) );
#48 = FACE_BOUND ( 'NONE', #227, .T. ) ;
#49 = AXIS2_PLACEMENT_3D ( 'NONE', #82, #158, #173 ) ;
#50 = ADVANCED_FACE ( 'NONE', ( #42 ), #273, .T. ) ;
#51 = UNCERTAINTY_MEASURE_WITH_UNIT (LENGTH_MEASURE( 1.000000000000000100E-005 ), #169, 'distance_accuracy_value', 'NONE');
#52 = PRESENTATION_STYLE_ASSIGNMENT (( #100 ) ) ;
#53 = ORIENTED_EDGE ( 'NONE', *, *, #144, .T. ) ;
#54 = CARTESIAN_POINT ( 'NONE',  ( 0.2500000000000001700, 0.0000000000000000000, 0.0000000000000000000 ) ) ;
#55 = CARTESIAN_POINT ( 'NONE',  ( 0.2500000000000002200, 0.0000000000000000000, 7.582401355855259500E-032 ) ) ;
#56 = VERTEX_POINT ( 'NONE', #55 ) ;
#57 = VERTEX_POINT ( 'NONE', #264 ) ;
#58 = DIRECTION ( 'NONE',  ( 1.000000000000000000, 0.0000000000000000000, 0.0000000000000000000 ) ) ;
#59 = DIRECTION ( 'NONE',  ( -0.0000000000000000000, -0.0000000000000000000, 1.000000000000000000 ) ) ;
#60 = LINE ( 'NONE', #125, #7 ) ;
#61 = EDGE_CURVE ( 'NONE', #205, #130, #189, .T. ) ;
#62 = CARTESIAN_POINT ( 'NONE',  ( -0.3125000000000001700, 3.827021247335480200E-017, -0.5699999999999999500 ) ) ;
#63 = DIRECTION ( 'NONE',  ( 1.000000000000000000, 0.0000000000000000000, 0.0000000000000000000 ) ) ;
#64 = ORIENTED_EDGE ( 'NONE', *, *, #61, .F. ) ;
#65 = UNCERTAINTY_MEASURE_WITH_UNIT (LENGTH_MEASURE( 1.000000000000000100E-005 ), #47, 'distance_accuracy_value', 'NONE');
#66 = PRESENTATION_STYLE_ASSIGNMENT (( #278 ) ) ;
#67 = ORIENTED_EDGE ( 'NONE', *, *, #196, .T. ) ;
#68 = AXIS2_PLACEMENT_3D ( 'NONE', #202, #177, #21 ) ;
#69 = AXIS2_PLACEMENT_3D ( 'NONE', #188, #192, #94 ) ;
#70 = ORIENTED_EDGE ( 'NONE', *, *, #184, .T. ) ;
#71 = FACE_OUTER_BOUND ( 'NONE', #165, .T. ) ;
#72 = EDGE_LOOP ( 'NONE', ( #27, #110, #270, #142 ) ) ;
#73 =( GEOMETRIC_REPRESENTATION_CONTEXT ( 3 ) GLOBAL_UNCERTAINTY_ASSIGNED_CONTEXT ( ( #65 ) ) GLOBAL_UNIT_ASSIGNED_CONTEXT ( ( #47, #280, #85 ) ) REPRESENTATION_CONTEXT ( 'NONE', 'WORKASPACE' ) );
#74 = CARTESIAN_POINT ( 'NONE',  ( -0.2500000000000001700, 3.061616997868384900E-017, 0.0000000000000000000 ) ) ;
#75 = EDGE_CURVE ( 'NONE', #190, #246, #232, .T. ) ;
#76 = CARTESIAN_POINT ( 'NONE',  ( 0.4099999999999999800, 0.0000000000000000000, 0.0000000000000000000 ) ) ;
#77 = AXIS2_PLACEMENT_3D ( 'NONE', #4, #45, #254 ) ;
#78 = CIRCLE ( 'NONE', #23, 0.2500000000000001100 ) ;
#79 = VECTOR ( 'NONE', #13, 39.37007874015748100 ) ;
#80 = ORIENTED_EDGE ( 'NONE', *, *, #123, .T. ) ;
#81 = DIRECTION ( 'NONE',  ( -0.0000000000000000000, -0.0000000000000000000, 1.000000000000000000 ) ) ;
#82 = CARTESIAN_POINT ( 'NONE',  ( 0.0000000000000000000, 0.0000000000000000000, -0.06199999999999997900 ) ) ;
#83 = DIRECTION ( 'NONE',  ( 1.000000000000000000, 0.0000000000000000000, 0.0000000000000000000 ) ) ;
#84 = EDGE_CURVE ( 'NONE', #88, #56, #104, .T. ) ;
#85 =( NAMED_UNIT ( * ) SI_UNIT ( $, .STERADIAN. ) SOLID_ANGLE_UNIT ( ) );
#86 = PRODUCT_DEFINITION ( 'UNKNOWN', '', #224, #250 ) ;
#87 = CIRCLE ( 'NONE', #178, 0.3125000000000001700 ) ;
#88 = VERTEX_POINT ( 'NONE', #97 ) ;
#89 = ADVANCED_FACE ( 'NONE', ( #93, #48 ), #195, .T. ) ;
#90 = FACE_OUTER_BOUND ( 'NONE', #247, .T. ) ;
#91 = CYLINDRICAL_SURFACE ( 'NONE', #211, 0.2500000000000001700 ) ;
#92 = ORIENTED_EDGE ( 'NONE', *, *, #213, .F. ) ;
#93 = FACE_OUTER_BOUND ( 'NONE', #226, .T. ) ;
#94 = DIRECTION ( 'NONE',  ( 1.000000000000000000, 0.0000000000000000000, 0.0000000000000000000 ) ) ;
#95 = DIRECTION ( 'NONE',  ( -0.0000000000000000000, -0.0000000000000000000, 1.000000000000000000 ) ) ;
#96 = AXIS2_PLACEMENT_3D ( 'NONE', #154, #174, #128 ) ;
#97 = CARTESIAN_POINT ( 'NONE',  ( 0.2500000000000001100, 0.0000000000000000000, -0.5699999999999999500 ) ) ;
#98 = COLOUR_RGB ( '',0.7921568627450980000, 0.8196078431372548800, 0.9333333333333333500 ) ;
#99 = ORIENTED_EDGE ( 'NONE', *, *, #144, .F. ) ;
#100 = SURFACE_STYLE_USAGE ( .BOTH. , #37 ) ;
#101 = DIRECTION ( 'NONE',  ( 0.0000000000000000000, -0.0000000000000000000, 1.000000000000000000 ) ) ;
#102 = AXIS2_PLACEMENT_3D ( 'NONE', #231, #183, #204 ) ;
#103 = CARTESIAN_POINT ( 'NONE',  ( 0.4099999999999999800, 0.0000000000000000000, 0.0000000000000000000 ) ) ;
#104 = LINE ( 'NONE', #54, #79 ) ;
#105 = EDGE_CURVE ( 'NONE', #258, #198, #203, .T. ) ;
#106 = DIRECTION ( 'NONE',  ( 0.0000000000000000000, 0.0000000000000000000, -1.000000000000000000 ) ) ;
#107 = DIRECTION ( 'NONE',  ( 1.000000000000000000, 0.0000000000000000000, 0.0000000000000000000 ) ) ;
#108 = CIRCLE ( 'NONE', #96, 0.3125000000000001700 ) ;
#109 = VECTOR ( 'NONE', #243, 39.37007874015748100 ) ;
#110 = ORIENTED_EDGE ( 'NONE', *, *, #257, .T. ) ;
#111 = APPLICATION_CONTEXT ( 'automotive_design' ) ;
#112 = SURFACE_SIDE_STYLE ('',( #121 ) ) ;
#113 = EDGE_CURVE ( 'NONE', #57, #258, #87, .T. ) ;
#114 =( LENGTH_UNIT ( ) NAMED_UNIT ( * ) SI_UNIT ( $, .METRE. ) );
#115 = AXIS2_PLACEMENT_3D ( 'NONE', #221, #81, #223 ) ;
#116 = PRODUCT_DEFINITION_SHAPE ( 'NONE', 'NONE',  #86 ) ;
#117 = ADVANCED_FACE ( 'NONE', ( #26 ), #91, .F. ) ;
#118 = CARTESIAN_POINT ( 'NONE',  ( 0.0000000000000000000, 0.0000000000000000000, 0.0000000000000000000 ) ) ;
#119 = AXIS2_PLACEMENT_3D ( 'NONE', #43, #1, #297 ) ;
#120 = DIRECTION ( 'NONE',  ( 1.000000000000000000, 0.0000000000000000000, 0.0000000000000000000 ) ) ;
#121 = SURFACE_STYLE_FILL_AREA ( #6 ) ;
#122 = EDGE_LOOP ( 'NONE', ( #53, #146 ) ) ;
#123 = EDGE_CURVE ( 'NONE', #166, #15, #216, .T. ) ;
#124 = VERTEX_POINT ( 'NONE', #214 ) ;
#125 = CARTESIAN_POINT ( 'NONE',  ( 0.3125000000000001700, 0.0000000000000000000, 0.0000000000000000000 ) ) ;
#126 = DIRECTION ( 'NONE',  ( -0.0000000000000000000, -0.0000000000000000000, 1.000000000000000000 ) ) ;
#127 = PRODUCT_RELATED_PRODUCT_CATEGORY ( 'part', '', ( #275 ) ) ;
#128 = DIRECTION ( 'NONE',  ( 1.000000000000000000, 0.0000000000000000000, 0.0000000000000000000 ) ) ;
#129 = CYLINDRICAL_SURFACE ( 'NONE', #291, 0.4099999999999999800 ) ;
#130 = VERTEX_POINT ( 'NONE', #76 ) ;
#131 = CARTESIAN_POINT ( 'NONE',  ( -0.4099999999999999800, 5.021051876504148100E-017, 0.0000000000000000000 ) ) ;
#132 =( LENGTH_UNIT ( ) NAMED_UNIT ( * ) SI_UNIT ( $, .METRE. ) );
#133 = CYLINDRICAL_SURFACE ( 'NONE', #287, 0.3125000000000001700 ) ;
#134 = ORIENTED_EDGE ( 'NONE', *, *, #171, .T. ) ;
#135 = CARTESIAN_POINT ( 'NONE',  ( 0.0000000000000000000, 0.0000000000000000000, 0.0000000000000000000 ) ) ;
#136 = DIMENSIONAL_EXPONENTS ( 1.000000000000000000, 0.0000000000000000000, 0.0000000000000000000, 0.0000000000000000000, 0.0000000000000000000, 0.0000000000000000000, 0.0000000000000000000 ) ;
#137 = LENGTH_MEASURE_WITH_UNIT ( LENGTH_MEASURE( 0.02539999999999999900 ), #114 );
#138 = ORIENTED_EDGE ( 'NONE', *, *, #113, .F. ) ;
#139 = CIRCLE ( 'NONE', #115, 0.4100000000000000900 ) ;
#140 = MANIFOLD_SOLID_BREP ( 'Revolve1', #200 ) ;
#141 = ORIENTED_EDGE ( 'NONE', *, *, #228, .T. ) ;
#142 = ORIENTED_EDGE ( 'NONE', *, *, #228, .F. ) ;
#143 = ORIENTED_EDGE ( 'NONE', *, *, #249, .F. ) ;
#144 = EDGE_CURVE ( 'NONE', #88, #190, #298, .T. ) ;
#145 = DIRECTION ( 'NONE',  ( -0.0000000000000000000, -0.0000000000000000000, 1.000000000000000000 ) ) ;
#146 = ORIENTED_EDGE ( 'NONE', *, *, #249, .T. ) ;
#147 = DIMENSIONAL_EXPONENTS ( 1.000000000000000000, 0.0000000000000000000, 0.0000000000000000000, 0.0000000000000000000, 0.0000000000000000000, 0.0000000000000000000, 0.0000000000000000000 ) ;
#148 =( LENGTH_UNIT ( ) NAMED_UNIT ( * ) SI_UNIT ( $, .METRE. ) );
#149 = CARTESIAN_POINT ( 'NONE',  ( -0.3125000000000001700, 3.827021247335480200E-017, 0.0000000000000000000 ) ) ;
#150 = VECTOR ( 'NONE', #263, 39.37007874015748100 ) ;
#151 = CARTESIAN_POINT ( 'NONE',  ( 0.0000000000000000000, 0.0000000000000000000, 0.0000000000000000000 ) ) ;
#152 = PRESENTATION_LAYER_ASSIGNMENT (  '', '', ( #5 ) ) ;
#153 = CARTESIAN_POINT ( 'NONE',  ( -0.4099999999999999800, 5.021051876504148100E-017, 0.0000000000000000000 ) ) ;
#154 = CARTESIAN_POINT ( 'NONE',  ( 0.0000000000000000000, 0.0000000000000000000, -0.5699999999999999500 ) ) ;
#155 = ORIENTED_EDGE ( 'NONE', *, *, #84, .F. ) ;
#156 = ORIENTED_EDGE ( 'NONE', *, *, #234, .F. ) ;
#157 = CARTESIAN_POINT ( 'NONE',  ( 0.2500000000000001100, 0.0000000000000000000, -0.5699999999999999500 ) ) ;
#158 = DIRECTION ( 'NONE',  ( -0.0000000000000000000, -0.0000000000000000000, 1.000000000000000000 ) ) ;
#159 = FACE_BOUND ( 'NONE', #122, .T. ) ;
#160 =( NAMED_UNIT ( * ) PLANE_ANGLE_UNIT ( ) SI_UNIT ( $, .RADIAN. ) );
#161 = ORIENTED_EDGE ( 'NONE', *, *, #61, .T. ) ;
#162 = APPLICATION_PROTOCOL_DEFINITION ( 'draft international standard', 'automotive_design', 1998, #111 ) ;
#163 = EDGE_LOOP ( 'NONE', ( #143, #208, #70, #155 ) ) ;
#164 =( NAMED_UNIT ( * ) SI_UNIT ( $, .STERADIAN. ) SOLID_ANGLE_UNIT ( ) );
#165 = EDGE_LOOP ( 'NONE', ( #191, #294, #67, #218 ) ) ;
#166 = VERTEX_POINT ( 'NONE', #219 ) ;
#167 = EDGE_CURVE ( 'NONE', #56, #246, #11, .T. ) ;
#168 = ORIENTED_EDGE ( 'NONE', *, *, #184, .F. ) ;
#169 =( CONVERSION_BASED_UNIT ( 'INCH', #277 ) LENGTH_UNIT ( ) NAMED_UNIT ( #209 ) );
#170 = SHAPE_DEFINITION_REPRESENTATION ( #116, #229 ) ;
#171 = EDGE_CURVE ( 'NONE', #124, #198, #215, .T. ) ;
#172 = CARTESIAN_POINT ( 'NONE',  ( 0.0000000000000000000, 0.0000000000000000000, 0.0000000000000000000 ) ) ;
#173 = DIRECTION ( 'NONE',  ( 1.000000000000000000, 0.0000000000000000000, 0.0000000000000000000 ) ) ;
#174 = DIRECTION ( 'NONE',  ( -0.0000000000000000000, -0.0000000000000000000, 1.000000000000000000 ) ) ;
#175 = VECTOR ( 'NONE', #10, 39.37007874015748100 ) ;
#176 = ORIENTED_EDGE ( 'NONE', *, *, #257, .F. ) ;
#177 = DIRECTION ( 'NONE',  ( -0.0000000000000000000, -0.0000000000000000000, 1.000000000000000000 ) ) ;
#178 = AXIS2_PLACEMENT_3D ( 'NONE', #17, #59, #58 ) ;
#179 = DIRECTION ( 'NONE',  ( -0.0000000000000000000, -0.0000000000000000000, 1.000000000000000000 ) ) ;
#180 = ORIENTED_EDGE ( 'NONE', *, *, #167, .T. ) ;
#181 = CARTESIAN_POINT ( 'NONE',  ( 0.0000000000000000000, 0.0000000000000000000, -0.5699999999999999500 ) ) ;
#182 = ADVANCED_FACE ( 'NONE', ( #71 ), #133, .T. ) ;
#183 = DIRECTION ( 'NONE',  ( -0.0000000000000000000, -0.0000000000000000000, 1.000000000000000000 ) ) ;
#184 = EDGE_CURVE ( 'NONE', #246, #56, #32, .T. ) ;
#185 = CIRCLE ( 'NONE', #279, 0.4099999999999999800 ) ;
#186 = ORIENTED_EDGE ( 'NONE', *, *, #220, .T. ) ;
#187 = ADVANCED_FACE ( 'NONE', ( #40 ), #129, .T. ) ;
#188 = CARTESIAN_POINT ( 'NONE',  ( 0.0000000000000000000, 0.0000000000000000000, 0.0000000000000000000 ) ) ;
#189 = CIRCLE ( 'NONE', #288, 0.4099999999999999800 ) ;
#190 = VERTEX_POINT ( 'NONE', #199 ) ;
#191 = ORIENTED_EDGE ( 'NONE', *, *, #105, .F. ) ;
#192 = DIRECTION ( 'NONE',  ( -0.0000000000000000000, -0.0000000000000000000, 1.000000000000000000 ) ) ;
#193 = ORIENTED_EDGE ( 'NONE', *, *, #123, .F. ) ;
#194 = DIRECTION ( 'NONE',  ( -0.0000000000000000000, -0.0000000000000000000, 1.000000000000000000 ) ) ;
#195 = PLANE ( 'NONE',  #266 ) ;
#196 = EDGE_CURVE ( 'NONE', #57, #124, #60, .T. ) ;
#197 = FACE_OUTER_BOUND ( 'NONE', #72, .T. ) ;
#198 = VERTEX_POINT ( 'NONE', #251 ) ;
#199 = CARTESIAN_POINT ( 'NONE',  ( -0.2500000000000001100, 3.061616997868384900E-017, -0.5699999999999999500 ) ) ;
#200 = CLOSED_SHELL ( 'NONE', ( #50, #281, #117, #283, #89, #187, #46, #182, #230 ) ) ;
#201 = CARTESIAN_POINT ( 'NONE',  ( 0.0000000000000000000, 0.0000000000000000000, 0.0000000000000000000 ) ) ;
#202 = CARTESIAN_POINT ( 'NONE',  ( 0.0000000000000000000, 0.0000000000000000000, 7.582401355855259500E-032 ) ) ;
#203 = LINE ( 'NONE', #149, #109 ) ;
#204 = DIRECTION ( 'NONE',  ( 1.000000000000000000, 0.0000000000000000000, 0.0000000000000000000 ) ) ;
#205 = VERTEX_POINT ( 'NONE', #153 ) ;
#206 = DIRECTION ( 'NONE',  ( 1.000000000000000000, 0.0000000000000000000, 0.0000000000000000000 ) ) ;
#207 = PRODUCT_CONTEXT ( 'NONE', #111, 'mechanical' ) ;
#208 = ORIENTED_EDGE ( 'NONE', *, *, #75, .T. ) ;
#209 = DIMENSIONAL_EXPONENTS ( 1.000000000000000000, 0.0000000000000000000, 0.0000000000000000000, 0.0000000000000000000, 0.0000000000000000000, 0.0000000000000000000, 0.0000000000000000000 ) ;
#210 = AXIS2_PLACEMENT_3D ( 'NONE', #157, #106, #248 ) ;
#211 = AXIS2_PLACEMENT_3D ( 'NONE', #151, #194, #120 ) ;
#212 = DIRECTION ( 'NONE',  ( 0.0000000000000000000, 0.0000000000000000000, -1.000000000000000000 ) ) ;
#213 = EDGE_CURVE ( 'NONE', #15, #166, #139, .T. ) ;
#214 = CARTESIAN_POINT ( 'NONE',  ( 0.3125000000000002200, 0.0000000000000000000, -0.06199999999999997900 ) ) ;
#215 = CIRCLE ( 'NONE', #49, 0.3125000000000002200 ) ;
#216 = CIRCLE ( 'NONE', #260, 0.4100000000000000900 ) ;
#217 = CARTESIAN_POINT ( 'NONE',  ( 0.0000000000000000000, 0.0000000000000000000, -0.5699999999999999500 ) ) ;
#218 = ORIENTED_EDGE ( 'NONE', *, *, #242, .F. ) ;
#219 = CARTESIAN_POINT ( 'NONE',  ( -0.4100000000000000900, 5.021051876504149400E-017, -0.06199999999999997900 ) ) ;
#220 = EDGE_CURVE ( 'NONE', #130, #205, #185, .T. ) ;
#221 = CARTESIAN_POINT ( 'NONE',  ( 0.0000000000000000000, 0.0000000000000000000, -0.06199999999999997900 ) ) ;
#222 = DIRECTION ( 'NONE',  ( -0.0000000000000000000, -0.0000000000000000000, 1.000000000000000000 ) ) ;
#223 = DIRECTION ( 'NONE',  ( 1.000000000000000000, 0.0000000000000000000, 0.0000000000000000000 ) ) ;
#224 = PRODUCT_DEFINITION_FORMATION_WITH_SPECIFIED_SOURCE ( 'ANY', '', #275, .NOT_KNOWN. ) ;
#225 = FILL_AREA_STYLE_COLOUR ( '', #98 ) ;
#226 = EDGE_LOOP ( 'NONE', ( #186, #161 ) ) ;
#227 = EDGE_LOOP ( 'NONE', ( #252, #168 ) ) ;
#228 = EDGE_CURVE ( 'NONE', #15, #130, #284, .T. ) ;
#229 = ADVANCED_BREP_SHAPE_REPRESENTATION ( 'am-0947 Shoulder Spacer, 0500 id, 0625 od, 0500 long, nylon REV2', ( #140, #38 ), #299 ) ;
#230 = ADVANCED_FACE ( 'NONE', ( #159, #90 ), #300, .T. ) ;
#231 = CARTESIAN_POINT ( 'NONE',  ( 0.0000000000000000000, 0.0000000000000000000, 0.0000000000000000000 ) ) ;
#232 = LINE ( 'NONE', #74, #150 ) ;
#233 = DIRECTION ( 'NONE',  ( 0.0000000000000000000, 0.0000000000000000000, 1.000000000000000000 ) ) ;
#234 = EDGE_CURVE ( 'NONE', #258, #57, #108, .T. ) ;
#235 = EDGE_LOOP ( 'NONE', ( #255, #12, #285, #286 ) ) ;
#236 = CARTESIAN_POINT ( 'NONE',  ( 0.4100000000000000900, 0.0000000000000000000, -0.06199999999999997900 ) ) ;
#237 = PLANE ( 'NONE',  #272 ) ;
#238 = DIRECTION ( 'NONE',  ( 1.000000000000000000, 0.0000000000000000000, 0.0000000000000000000 ) ) ;
#239 =( NAMED_UNIT ( * ) PLANE_ANGLE_UNIT ( ) SI_UNIT ( $, .RADIAN. ) );
#240 = COLOUR_RGB ( '',1.000000000000000000, 0.9882352941176471000, 0.7176470588235294200 ) ;
#241 = EDGE_LOOP ( 'NONE', ( #134, #29 ) ) ;
#242 = EDGE_CURVE ( 'NONE', #198, #124, #244, .T. ) ;
#243 = DIRECTION ( 'NONE',  ( -0.0000000000000000000, -0.0000000000000000000, 1.000000000000000000 ) ) ;
#244 = CIRCLE ( 'NONE', #119, 0.3125000000000002200 ) ;
#245 = DIRECTION ( 'NONE',  ( 1.000000000000000000, 0.0000000000000000000, 0.0000000000000000000 ) ) ;
#246 = VERTEX_POINT ( 'NONE', #274 ) ;
#247 = EDGE_LOOP ( 'NONE', ( #138, #156 ) ) ;
#248 = DIRECTION ( 'NONE',  ( -1.000000000000000000, 0.0000000000000000000, -0.0000000000000000000 ) ) ;
#249 = EDGE_CURVE ( 'NONE', #190, #88, #78, .T. ) ;
#250 = PRODUCT_DEFINITION_CONTEXT ( 'detailed design', #276, 'design' ) ;
#251 = CARTESIAN_POINT ( 'NONE',  ( -0.3125000000000002200, 3.827021247335480800E-017, -0.06199999999999997900 ) ) ;
#252 = ORIENTED_EDGE ( 'NONE', *, *, #167, .F. ) ;
#253 = DIRECTION ( 'NONE',  ( 1.000000000000000000, 0.0000000000000000000, 0.0000000000000000000 ) ) ;
#254 = DIRECTION ( 'NONE',  ( 1.000000000000000000, 0.0000000000000000000, 0.0000000000000000000 ) ) ;
#255 = ORIENTED_EDGE ( 'NONE', *, *, #113, .T. ) ;
#256 = EDGE_LOOP ( 'NONE', ( #293, #99, #262, #180 ) ) ;
#257 = EDGE_CURVE ( 'NONE', #166, #205, #25, .T. ) ;
#258 = VERTEX_POINT ( 'NONE', #62 ) ;
#259 = CYLINDRICAL_SURFACE ( 'NONE', #77, 0.4099999999999999800 ) ;
#260 = AXIS2_PLACEMENT_3D ( 'NONE', #268, #95, #267 ) ;
#261 = DIRECTION ( 'NONE',  ( -1.000000000000000000, 0.0000000000000000000, -0.0000000000000000000 ) ) ;
#262 = ORIENTED_EDGE ( 'NONE', *, *, #84, .T. ) ;
#263 = DIRECTION ( 'NONE',  ( -0.0000000000000000000, -0.0000000000000000000, 1.000000000000000000 ) ) ;
#264 = CARTESIAN_POINT ( 'NONE',  ( 0.3125000000000001700, 0.0000000000000000000, -0.5699999999999999500 ) ) ;
#265 = FACE_OUTER_BOUND ( 'NONE', #256, .T. ) ;
#266 = AXIS2_PLACEMENT_3D ( 'NONE', #14, #101, #271 ) ;
#267 = DIRECTION ( 'NONE',  ( 1.000000000000000000, 0.0000000000000000000, 0.0000000000000000000 ) ) ;
#268 = CARTESIAN_POINT ( 'NONE',  ( 0.0000000000000000000, 0.0000000000000000000, -0.06199999999999997900 ) ) ;
#269 = DIRECTION ( 'NONE',  ( 1.000000000000000000, 0.0000000000000000000, 0.0000000000000000000 ) ) ;
#270 = ORIENTED_EDGE ( 'NONE', *, *, #220, .F. ) ;
#271 = DIRECTION ( 'NONE',  ( 1.000000000000000000, 0.0000000000000000000, 0.0000000000000000000 ) ) ;
#272 = AXIS2_PLACEMENT_3D ( 'NONE', #34, #212, #261 ) ;
#273 = CYLINDRICAL_SURFACE ( 'NONE', #69, 0.3125000000000001700 ) ;
#274 = CARTESIAN_POINT ( 'NONE',  ( -0.2500000000000002200, 3.061616997868385500E-017, 7.582401355855259500E-032 ) ) ;
#275 = PRODUCT ( 'am-0947 Shoulder Spacer, 0500 id, 0625 od, 0500 long, nylon REV2', 'am-0947 Shoulder Spacer, 0500 id, 0625 od, 0500 long, nylon REV2', '', ( #207 ) ) ;
#276 = APPLICATION_CONTEXT ( 'automotive_design' ) ;
#277 = LENGTH_MEASURE_WITH_UNIT ( LENGTH_MEASURE( 0.02539999999999999900 ), #148 );
#278 = SURFACE_STYLE_USAGE ( .BOTH. , #112 ) ;
#279 = AXIS2_PLACEMENT_3D ( 'NONE', #172, #44, #245 ) ;
#280 =( NAMED_UNIT ( * ) PLANE_ANGLE_UNIT ( ) SI_UNIT ( $, .RADIAN. ) );
#281 = ADVANCED_FACE ( 'NONE', ( #197 ), #259, .T. ) ;
#282 = UNCERTAINTY_MEASURE_WITH_UNIT (LENGTH_MEASURE( 1.000000000000000100E-005 ), #30, 'distance_accuracy_value', 'NONE');
#283 = ADVANCED_FACE ( 'NONE', ( #265 ), #18, .F. ) ;
#284 = LINE ( 'NONE', #103, #33 ) ;
#285 = ORIENTED_EDGE ( 'NONE', *, *, #171, .F. ) ;
#286 = ORIENTED_EDGE ( 'NONE', *, *, #196, .F. ) ;
#287 = AXIS2_PLACEMENT_3D ( 'NONE', #39, #22, #63 ) ;
#288 = AXIS2_PLACEMENT_3D ( 'NONE', #118, #145, #238 ) ;
#289 = DIRECTION ( 'NONE',  ( -0.0000000000000000000, -0.0000000000000000000, 1.000000000000000000 ) ) ;
#290 = LENGTH_MEASURE_WITH_UNIT ( LENGTH_MEASURE( 0.02539999999999999900 ), #132 );
#291 = AXIS2_PLACEMENT_3D ( 'NONE', #201, #301, #107 ) ;
#292 = FILL_AREA_STYLE ('',( #296 ) ) ;
#293 = ORIENTED_EDGE ( 'NONE', *, *, #75, .F. ) ;
#294 = ORIENTED_EDGE ( 'NONE', *, *, #234, .T. ) ;
#295 = PRESENTATION_LAYER_ASSIGNMENT (  '', '', ( #302 ) ) ;
#296 = FILL_AREA_STYLE_COLOUR ( '', #240 ) ;
#297 = DIRECTION ( 'NONE',  ( 1.000000000000000000, 0.0000000000000000000, 0.0000000000000000000 ) ) ;
#298 = CIRCLE ( 'NONE', #20, 0.2500000000000001100 ) ;
#299 =( GEOMETRIC_REPRESENTATION_CONTEXT ( 3 ) GLOBAL_UNCERTAINTY_ASSIGNED_CONTEXT ( ( #282 ) ) GLOBAL_UNIT_ASSIGNED_CONTEXT ( ( #30, #160, #164 ) ) REPRESENTATION_CONTEXT ( 'NONE', 'WORKASPACE' ) );
#300 = PLANE ( 'NONE',  #210 ) ;
#301 = DIRECTION ( 'NONE',  ( -0.0000000000000000000, -0.0000000000000000000, 1.000000000000000000 ) ) ;
#302 = STYLED_ITEM ( 'NONE', ( #52 ), #140 ) ;
#303 = CARTESIAN_POINT ( 'NONE',  ( 0.0000000000000000000, 0.0000000000000000000, 7.582401355855259500E-032 ) ) ;
ENDSEC;
END-ISO-10303-21;
