ISO-10303-21;
HEADER;
FILE_DESCRIPTION (( 'STEP AP214' ),
    '1' );
FILE_NAME ('am-1019 1''''x0.125'''' Steel Dowel Pin REV2.STEP',
    '2018-06-26T12:52:06',
    ( '' ),
    ( '' ),
    'SwSTEP 2.0',
    'SolidWorks 2017',
    '' );
FILE_SCHEMA (( 'AUTOMOTIVE_DESIGN' ));
ENDSEC;

DATA;
#1 = VECTOR ( 'NONE', #233, 39.37007874015748100 ) ;
#2 = PRODUCT_DEFINITION_FORMATION_WITH_SPECIFIED_SOURCE ( 'ANY', '', #94, .NOT_KNOWN. ) ;
#4 = DIRECTION ( 'NONE',  ( 0.0000000000000000000, 0.0000000000000000000, -1.000000000000000000 ) ) ;
#3 = DIMENSIONAL_EXPONENTS ( 1.000000000000000000, 0.0000000000000000000, 0.0000000000000000000, 0.0000000000000000000, 0.0000000000000000000, 0.0000000000000000000, 0.0000000000000000000 ) ;
#5 =( GEOMETRIC_REPRESENTATION_CONTEXT ( 3 ) GLOBAL_UNCERTAINTY_ASSIGNED_CONTEXT ( ( #137 ) ) GLOBAL_UNIT_ASSIGNED_CONTEXT ( ( #15, #181, #126 ) ) REPRESENTATION_CONTEXT ( 'NONE', 'WORKASPACE' ) );
#6 = ADVANCED_FACE ( 'NONE', ( #65 ), #232, .T. ) ;
#7 = CIRCLE ( 'NONE', #74, 0.05249999999999965100 ) ;
#8 = EDGE_CURVE ( 'NONE', #69, #18, #7, .T. ) ;
#9 = CARTESIAN_POINT ( 'NONE',  ( 7.041719095097259200E-018, 0.0000000000000000000, -0.05249999999999965100 ) ) ;
#10 = VECTOR ( 'NONE', #99, 39.37007874015748100 ) ;
#11 = DIRECTION ( 'NONE',  ( 8.659560562354955000E-017, -0.7071067811865456900, 0.7071067811865493500 ) ) ;
#12 =( LENGTH_UNIT ( ) NAMED_UNIT ( * ) SI_UNIT ( $, .METRE. ) );
#13 =( NAMED_UNIT ( * ) PLANE_ANGLE_UNIT ( ) SI_UNIT ( $, .RADIAN. ) );
#14 = LINE ( 'NONE', #50, #225 ) ;
#15 =( CONVERSION_BASED_UNIT ( 'INCH', #106 ) LENGTH_UNIT ( ) NAMED_UNIT ( #168 ) );
#16 = DIRECTION ( 'NONE',  ( 0.0000000000000000000, -1.000000000000000000, 0.0000000000000000000 ) ) ;
#17 = EDGE_CURVE ( 'NONE', #18, #69, #210, .T. ) ;
#18 = VERTEX_POINT ( 'NONE', #249 ) ;
#19 = FACE_OUTER_BOUND ( 'NONE', #49, .T. ) ;
#20 = ORIENTED_EDGE ( 'NONE', *, *, #196, .F. ) ;
#21 = APPLICATION_CONTEXT ( 'automotive_design' ) ;
#22 = AXIS2_PLACEMENT_3D ( 'NONE', #142, #105, #78 ) ;
#23 = ORIENTED_EDGE ( 'NONE', *, *, #62, .F. ) ;
#24 = ORIENTED_EDGE ( 'NONE', *, *, #62, .T. ) ;
#25 = CARTESIAN_POINT ( 'NONE',  ( 0.0000000000000000000, 0.0000000000000000000, 0.0000000000000000000 ) ) ;
#26 = CIRCLE ( 'NONE', #217, 0.06250000000000000000 ) ;
#27 = ORIENTED_EDGE ( 'NONE', *, *, #184, .T. ) ;
#28 = VECTOR ( 'NONE', #192, 39.37007874015748100 ) ;
#29 = CARTESIAN_POINT ( 'NONE',  ( 7.654042494670957500E-018, 1.000000000000000000, 0.06250000000000000000 ) ) ;
#30 = SURFACE_STYLE_USAGE ( .BOTH. , #237 ) ;
#31 = CARTESIAN_POINT ( 'NONE',  ( 0.0000000000000000000, 0.0000000000000000000, 0.0000000000000000000 ) ) ;
#32 = CARTESIAN_POINT ( 'NONE',  ( 0.0000000000000000000, 1.000000000000000000, 0.0000000000000000000 ) ) ;
#33 = ORIENTED_EDGE ( 'NONE', *, *, #184, .F. ) ;
#34 = EDGE_LOOP ( 'NONE', ( #154, #211, #33, #239 ) ) ;
#35 = SURFACE_STYLE_USAGE ( .BOTH. , #204 ) ;
#36 = ORIENTED_EDGE ( 'NONE', *, *, #141, .F. ) ;
#37 = CARTESIAN_POINT ( 'NONE',  ( 0.0000000000000000000, 0.01000000000000030400, 0.06250000000000000000 ) ) ;
#38 = APPLICATION_PROTOCOL_DEFINITION ( 'draft international standard', 'automotive_design', 1998, #21 ) ;
#39 = VERTEX_POINT ( 'NONE', #167 ) ;
#40 = ORIENTED_EDGE ( 'NONE', *, *, #116, .F. ) ;
#41 = DIRECTION ( 'NONE',  ( -0.0000000000000000000, -1.000000000000000000, -0.0000000000000000000 ) ) ;
#42 = PRESENTATION_STYLE_ASSIGNMENT (( #35 ) ) ;
#43 = EDGE_LOOP ( 'NONE', ( #23, #248, #127, #73 ) ) ;
#44 = CARTESIAN_POINT ( 'NONE',  ( 0.0000000000000000000, 0.01000000000000030400, 0.0000000000000000000 ) ) ;
#45 = EDGE_CURVE ( 'NONE', #186, #218, #87, .T. ) ;
#46 = CARTESIAN_POINT ( 'NONE',  ( 0.0000000000000000000, 1.000000000000000000, -0.05249999999999991500 ) ) ;
#47 = PRODUCT_DEFINITION_CONTEXT ( 'detailed design', #229, 'design' ) ;
#48 =( GEOMETRIC_REPRESENTATION_CONTEXT ( 3 ) GLOBAL_UNCERTAINTY_ASSIGNED_CONTEXT ( ( #188 ) ) GLOBAL_UNIT_ASSIGNED_CONTEXT ( ( #240, #13, #77 ) ) REPRESENTATION_CONTEXT ( 'NONE', 'WORKASPACE' ) );
#49 = EDGE_LOOP ( 'NONE', ( #83, #145 ) ) ;
#50 = CARTESIAN_POINT ( 'NONE',  ( 7.654042494670957500E-018, 0.01000000000000030400, -0.06250000000000000000 ) ) ;
#51 = COLOUR_RGB ( '',0.7803921568627451000, 0.7607843137254901600, 0.7411764705882353300 ) ;
#52 = EDGE_CURVE ( 'NONE', #218, #68, #100, .T. ) ;
#53 = DIRECTION ( 'NONE',  ( 0.0000000000000000000, -1.000000000000000000, 0.0000000000000000000 ) ) ;
#55 = ADVANCED_FACE ( 'NONE', ( #109 ), #103, .T. ) ;
#54 = CARTESIAN_POINT ( 'NONE',  ( 0.0000000000000000000, 0.01000000000000030400, 0.0000000000000000000 ) ) ;
#56 = ORIENTED_EDGE ( 'NONE', *, *, #113, .F. ) ;
#57 = DIRECTION ( 'NONE',  ( 0.0000000000000000000, 0.0000000000000000000, 1.000000000000000000 ) ) ;
#58 = CIRCLE ( 'NONE', #207, 0.05249999999999991500 ) ;
#59 = DIRECTION ( 'NONE',  ( -0.0000000000000000000, -1.000000000000000000, -0.0000000000000000000 ) ) ;
#60 = PRODUCT_CONTEXT ( 'NONE', #21, 'mechanical' ) ;
#61 = SURFACE_STYLE_FILL_AREA ( #224 ) ;
#62 = EDGE_CURVE ( 'NONE', #178, #173, #104, .T. ) ;
#63 = ORIENTED_EDGE ( 'NONE', *, *, #89, .F. ) ;
#64 = ORIENTED_EDGE ( 'NONE', *, *, #98, .F. ) ;
#65 = FACE_OUTER_BOUND ( 'NONE', #43, .T. ) ;
#66 = DIRECTION ( 'NONE',  ( 0.0000000000000000000, 0.0000000000000000000, 1.000000000000000000 ) ) ;
#67 = CARTESIAN_POINT ( 'NONE',  ( 0.0000000000000000000, 1.000000000000000000, -0.06250000000000000000 ) ) ;
#68 = VERTEX_POINT ( 'NONE', #214 ) ;
#69 = VERTEX_POINT ( 'NONE', #9 ) ;
#70 = DIRECTION ( 'NONE',  ( -0.0000000000000000000, 1.000000000000000000, -0.0000000000000000000 ) ) ;
#71 = AXIS2_PLACEMENT_3D ( 'NONE', #31, #177, #156 ) ;
#72 = DIRECTION ( 'NONE',  ( -0.0000000000000000000, 1.000000000000000000, -0.0000000000000000000 ) ) ;
#73 = ORIENTED_EDGE ( 'NONE', *, *, #116, .T. ) ;
#74 = AXIS2_PLACEMENT_3D ( 'NONE', #25, #129, #66 ) ;
#75 = AXIS2_PLACEMENT_3D ( 'NONE', #32, #59, #123 ) ;
#76 = CARTESIAN_POINT ( 'NONE',  ( 0.0000000000000000000, 0.01000000000000030400, 0.0000000000000000000 ) ) ;
#77 =( NAMED_UNIT ( * ) SI_UNIT ( $, .STERADIAN. ) SOLID_ANGLE_UNIT ( ) );
#78 = DIRECTION ( 'NONE',  ( 1.000000000000000000, 0.0000000000000000000, 0.0000000000000000000 ) ) ;
#79 = CLOSED_SHELL ( 'NONE', ( #101, #172, #110, #6, #88, #187, #55, #90 ) ) ;
#80 = VECTOR ( 'NONE', #124, 39.37007874015748100 ) ;
#81 = PRESENTATION_LAYER_ASSIGNMENT (  '', '', ( #164 ) ) ;
#82 = LINE ( 'NONE', #37, #80 ) ;
#83 = ORIENTED_EDGE ( 'NONE', *, *, #17, .T. ) ;
#84 = DIRECTION ( 'NONE',  ( 0.0000000000000000000, 0.0000000000000000000, -1.000000000000000000 ) ) ;
#85 = CONICAL_SURFACE ( 'NONE', #231, 0.06250000000000000000, 0.7853981633974503900 ) ;
#86 = AXIS2_PLACEMENT_3D ( 'NONE', #44, #70, #213 ) ;
#87 = LINE ( 'NONE', #46, #1 ) ;
#88 = ADVANCED_FACE ( 'NONE', ( #216 ), #150, .T. ) ;
#89 = EDGE_CURVE ( 'NONE', #69, #68, #14, .T. ) ;
#90 = ADVANCED_FACE ( 'NONE', ( #117 ), #122, .T. ) ;
#91 = DIRECTION ( 'NONE',  ( 0.0000000000000000000, 1.000000000000000000, 0.0000000000000000000 ) ) ;
#92 = ORIENTED_EDGE ( 'NONE', *, *, #128, .T. ) ;
#93 = CARTESIAN_POINT ( 'NONE',  ( 6.429395695523594700E-018, 1.000000000000000000, 0.05249999999999991500 ) ) ;
#94 = PRODUCT ( 'am-1019 1''''''''x0.125'''''''' Steel Dowel Pin REV2', 'am-1019 1''''''''x0.125'''''''' Steel Dowel Pin REV2', '', ( #60 ) ) ;
#95 = ORIENTED_EDGE ( 'NONE', *, *, #98, .T. ) ;
#96 = ORIENTED_EDGE ( 'NONE', *, *, #141, .T. ) ;
#97 = AXIS2_PLACEMENT_3D ( 'NONE', #138, #199, #179 ) ;
#98 = EDGE_CURVE ( 'NONE', #39, #186, #58, .T. ) ;
#99 = DIRECTION ( 'NONE',  ( -0.0000000000000000000, -1.000000000000000000, -0.0000000000000000000 ) ) ;
#100 = LINE ( 'NONE', #67, #10 ) ;
#101 = ADVANCED_FACE ( 'NONE', ( #247 ), #236, .T. ) ;
#102 = DIRECTION ( 'NONE',  ( 0.0000000000000000000, 1.000000000000000000, 0.0000000000000000000 ) ) ;
#103 = CONICAL_SURFACE ( 'NONE', #86, 0.06250000000000000000, 0.7853981633974503900 ) ;
#104 = LINE ( 'NONE', #29, #28 ) ;
#105 = DIRECTION ( 'NONE',  ( 0.0000000000000000000, 0.0000000000000000000, 1.000000000000000000 ) ) ;
#106 = LENGTH_MEASURE_WITH_UNIT ( LENGTH_MEASURE( 0.02539999999999999900 ), #180 );
#107 = ORIENTED_EDGE ( 'NONE', *, *, #45, .F. ) ;
#108 = DIRECTION ( 'NONE',  ( 0.0000000000000000000, 0.0000000000000000000, 1.000000000000000000 ) ) ;
#109 = FACE_OUTER_BOUND ( 'NONE', #166, .T. ) ;
#110 = ADVANCED_FACE ( 'NONE', ( #114 ), #198, .T. ) ;
#111 = AXIS2_PLACEMENT_3D ( 'NONE', #242, #72, #136 ) ;
#112 = DIRECTION ( 'NONE',  ( 0.0000000000000000000, 0.0000000000000000000, 1.000000000000000000 ) ) ;
#113 = EDGE_CURVE ( 'NONE', #39, #178, #157, .T. ) ;
#114 = FACE_OUTER_BOUND ( 'NONE', #190, .T. ) ;
#115 = CARTESIAN_POINT ( 'NONE',  ( 0.0000000000000000000, 1.000000000000000000, 0.0000000000000000000 ) ) ;
#116 = EDGE_CURVE ( 'NONE', #68, #173, #130, .T. ) ;
#117 = FACE_OUTER_BOUND ( 'NONE', #169, .T. ) ;
#118 = DIRECTION ( 'NONE',  ( 0.0000000000000000000, -1.000000000000000000, 0.0000000000000000000 ) ) ;
#119 = DIRECTION ( 'NONE',  ( 0.0000000000000000000, 0.0000000000000000000, 1.000000000000000000 ) ) ;
#120 = FACE_OUTER_BOUND ( 'NONE', #34, .T. ) ;
#121 = CARTESIAN_POINT ( 'NONE',  ( 0.0000000000000000000, 0.9899999999999999900, 0.0000000000000000000 ) ) ;
#122 = CONICAL_SURFACE ( 'NONE', #163, 0.05249999999999991500, 0.7853981633974509400 ) ;
#123 = DIRECTION ( 'NONE',  ( 0.0000000000000000000, 0.0000000000000000000, -1.000000000000000000 ) ) ;
#124 = DIRECTION ( 'NONE',  ( 0.0000000000000000000, 0.7071067811865460200, 0.7071067811865490200 ) ) ;
#125 =( GEOMETRIC_REPRESENTATION_CONTEXT ( 3 ) GLOBAL_UNCERTAINTY_ASSIGNED_CONTEXT ( ( #221 ) ) GLOBAL_UNIT_ASSIGNED_CONTEXT ( ( #230, #185, #183 ) ) REPRESENTATION_CONTEXT ( 'NONE', 'WORKASPACE' ) );
#126 =( NAMED_UNIT ( * ) SI_UNIT ( $, .STERADIAN. ) SOLID_ANGLE_UNIT ( ) );
#127 = ORIENTED_EDGE ( 'NONE', *, *, #52, .T. ) ;
#128 = EDGE_CURVE ( 'NONE', #218, #178, #202, .T. ) ;
#129 = DIRECTION ( 'NONE',  ( -0.0000000000000000000, -1.000000000000000000, -0.0000000000000000000 ) ) ;
#130 = CIRCLE ( 'NONE', #111, 0.06250000000000000000 ) ;
#131 = DIRECTION ( 'NONE',  ( 0.0000000000000000000, -1.000000000000000000, 0.0000000000000000000 ) ) ;
#132 = ORIENTED_EDGE ( 'NONE', *, *, #128, .F. ) ;
#133 = PRODUCT_DEFINITION_SHAPE ( 'NONE', 'NONE',  #149 ) ;
#134 = DIRECTION ( 'NONE',  ( 0.0000000000000000000, 0.0000000000000000000, -1.000000000000000000 ) ) ;
#135 = DIRECTION ( 'NONE',  ( 0.0000000000000000000, 0.0000000000000000000, 1.000000000000000000 ) ) ;
#136 = DIRECTION ( 'NONE',  ( 0.0000000000000000000, 0.0000000000000000000, 1.000000000000000000 ) ) ;
#137 = UNCERTAINTY_MEASURE_WITH_UNIT (LENGTH_MEASURE( 1.000000000000000100E-005 ), #15, 'distance_accuracy_value', 'NONE');
#138 = CARTESIAN_POINT ( 'NONE',  ( 0.0000000000000000000, 1.000000000000000000, 0.0000000000000000000 ) ) ;
#139 = DIRECTION ( 'NONE',  ( -0.0000000000000000000, 1.000000000000000000, -0.0000000000000000000 ) ) ;
#140 = ORIENTED_EDGE ( 'NONE', *, *, #45, .T. ) ;
#141 = EDGE_CURVE ( 'NONE', #186, #39, #148, .T. ) ;
#142 = CARTESIAN_POINT ( 'NONE',  ( 0.0000000000000000000, 0.0000000000000000000, 0.0000000000000000000 ) ) ;
#143 = FILL_AREA_STYLE_COLOUR ( '', #51 ) ;
#144 = STYLED_ITEM ( 'NONE', ( #42 ), #160 ) ;
#145 = ORIENTED_EDGE ( 'NONE', *, *, #8, .T. ) ;
#146 = EDGE_LOOP ( 'NONE', ( #64, #147, #132, #107 ) ) ;
#147 = ORIENTED_EDGE ( 'NONE', *, *, #113, .T. ) ;
#148 = CIRCLE ( 'NONE', #97, 0.05249999999999991500 ) ;
#149 = PRODUCT_DEFINITION ( 'UNKNOWN', '', #2, #47 ) ;
#150 = PLANE ( 'NONE',  #189 ) ;
#151 = CARTESIAN_POINT ( 'NONE',  ( 0.0000000000000000000, 1.000000000000000000, 0.0000000000000000000 ) ) ;
#152 = AXIS2_PLACEMENT_3D ( 'NONE', #165, #234, #112 ) ;
#153 = SHAPE_DEFINITION_REPRESENTATION ( #133, #160 ) ;
#154 = ORIENTED_EDGE ( 'NONE', *, *, #8, .F. ) ;
#155 = PLANE ( 'NONE',  #71 ) ;
#156 = DIRECTION ( 'NONE',  ( 0.0000000000000000000, -0.0000000000000000000, 1.000000000000000000 ) ) ;
#157 = LINE ( 'NONE', #93, #220 ) ;
#158 = CARTESIAN_POINT ( 'NONE',  ( 7.654042494670957500E-018, 0.01000000000000030400, 0.06250000000000000000 ) ) ;
#159 = AXIS2_PLACEMENT_3D ( 'NONE', #76, #139, #57 ) ;
#160 = ADVANCED_BREP_SHAPE_REPRESENTATION ( 'am-1019 1''''''''x0.125'''''''' Steel Dowel Pin REV2', ( #171, #22 ), #5 ) ;
#161 = ORIENTED_EDGE ( 'NONE', *, *, #52, .F. ) ;
#162 = ORIENTED_EDGE ( 'NONE', *, *, #17, .F. ) ;
#163 = AXIS2_PLACEMENT_3D ( 'NONE', #115, #131, #4 ) ;
#164 = STYLED_ITEM ( 'NONE', ( #191 ), #171 ) ;
#165 = CARTESIAN_POINT ( 'NONE',  ( 0.0000000000000000000, 0.0000000000000000000, 0.0000000000000000000 ) ) ;
#166 = EDGE_LOOP ( 'NONE', ( #63, #162, #205, #40 ) ) ;
#167 = CARTESIAN_POINT ( 'NONE',  ( 7.041719095097276100E-018, 1.000000000000000000, 0.05249999999999991500 ) ) ;
#168 = DIMENSIONAL_EXPONENTS ( 1.000000000000000000, 0.0000000000000000000, 0.0000000000000000000, 0.0000000000000000000, 0.0000000000000000000, 0.0000000000000000000, 0.0000000000000000000 ) ;
#169 = EDGE_LOOP ( 'NONE', ( #56, #36, #140, #20 ) ) ;
#170 = DIRECTION ( 'NONE',  ( 8.659560562354951300E-017, 0.7071067811865460200, -0.7071067811865490200 ) ) ;
#171 = MANIFOLD_SOLID_BREP ( 'Chamfer1', #79 ) ;
#172 = ADVANCED_FACE ( 'NONE', ( #120 ), #85, .T. ) ;
#173 = VERTEX_POINT ( 'NONE', #158 ) ;
#174 = CIRCLE ( 'NONE', #159, 0.06250000000000000000 ) ;
#175 = DIRECTION ( 'NONE',  ( -0.0000000000000000000, 1.000000000000000000, -0.0000000000000000000 ) ) ;
#176 = AXIS2_PLACEMENT_3D ( 'NONE', #208, #41, #84 ) ;
#177 = DIRECTION ( 'NONE',  ( 0.0000000000000000000, 1.000000000000000000, 0.0000000000000000000 ) ) ;
#178 = VERTEX_POINT ( 'NONE', #200 ) ;
#179 = DIRECTION ( 'NONE',  ( 0.0000000000000000000, 0.0000000000000000000, 1.000000000000000000 ) ) ;
#180 =( LENGTH_UNIT ( ) NAMED_UNIT ( * ) SI_UNIT ( $, .METRE. ) );
#181 =( NAMED_UNIT ( * ) PLANE_ANGLE_UNIT ( ) SI_UNIT ( $, .RADIAN. ) );
#182 = EDGE_LOOP ( 'NONE', ( #96, #95 ) ) ;
#183 =( NAMED_UNIT ( * ) SI_UNIT ( $, .STERADIAN. ) SOLID_ANGLE_UNIT ( ) );
#184 = EDGE_CURVE ( 'NONE', #173, #68, #174, .T. ) ;
#185 =( NAMED_UNIT ( * ) PLANE_ANGLE_UNIT ( ) SI_UNIT ( $, .RADIAN. ) );
#186 = VERTEX_POINT ( 'NONE', #219 ) ;
#187 = ADVANCED_FACE ( 'NONE', ( #19 ), #155, .F. ) ;
#188 = UNCERTAINTY_MEASURE_WITH_UNIT (LENGTH_MEASURE( 1.000000000000000100E-005 ), #240, 'distance_accuracy_value', 'NONE');
#189 = AXIS2_PLACEMENT_3D ( 'NONE', #151, #102, #193 ) ;
#190 = EDGE_LOOP ( 'NONE', ( #92, #24, #27, #161 ) ) ;
#191 = PRESENTATION_STYLE_ASSIGNMENT (( #30 ) ) ;
#192 = DIRECTION ( 'NONE',  ( -0.0000000000000000000, -1.000000000000000000, -0.0000000000000000000 ) ) ;
#193 = DIRECTION ( 'NONE',  ( 0.0000000000000000000, -0.0000000000000000000, 1.000000000000000000 ) ) ;
#194 = CARTESIAN_POINT ( 'NONE',  ( 0.0000000000000000000, 1.000000000000000000, 0.0000000000000000000 ) ) ;
#195 = CARTESIAN_POINT ( 'NONE',  ( 0.0000000000000000000, 1.000000000000000000, 0.0000000000000000000 ) ) ;
#196 = EDGE_CURVE ( 'NONE', #178, #218, #26, .T. ) ;
#197 = MECHANICAL_DESIGN_GEOMETRIC_PRESENTATION_REPRESENTATION (  '', ( #144 ), #125 ) ;
#198 = CYLINDRICAL_SURFACE ( 'NONE', #75, 0.06250000000000000000 ) ;
#199 = DIRECTION ( 'NONE',  ( 0.0000000000000000000, 1.000000000000000000, 0.0000000000000000000 ) ) ;
#200 = CARTESIAN_POINT ( 'NONE',  ( 7.654042494670957500E-018, 0.9899999999999999900, 0.06250000000000000000 ) ) ;
#201 = APPLICATION_PROTOCOL_DEFINITION ( 'draft international standard', 'automotive_design', 1998, #229 ) ;
#202 = CIRCLE ( 'NONE', #235, 0.06250000000000000000 ) ;
#203 = PRODUCT_RELATED_PRODUCT_CATEGORY ( 'part', '', ( #94 ) ) ;
#204 = SURFACE_SIDE_STYLE ('',( #209 ) ) ;
#205 = ORIENTED_EDGE ( 'NONE', *, *, #244, .T. ) ;
#206 = COLOUR_RGB ( '',0.7803921568627451000, 0.7607843137254901600, 0.7411764705882353300 ) ;
#207 = AXIS2_PLACEMENT_3D ( 'NONE', #195, #91, #119 ) ;
#208 = CARTESIAN_POINT ( 'NONE',  ( 0.0000000000000000000, 1.000000000000000000, 0.0000000000000000000 ) ) ;
#209 = SURFACE_STYLE_FILL_AREA ( #226 ) ;
#210 = CIRCLE ( 'NONE', #152, 0.05249999999999965100 ) ;
#211 = ORIENTED_EDGE ( 'NONE', *, *, #89, .T. ) ;
#212 = PRESENTATION_LAYER_ASSIGNMENT (  '', '', ( #144 ) ) ;
#213 = DIRECTION ( 'NONE',  ( 0.0000000000000000000, 0.0000000000000000000, 1.000000000000000000 ) ) ;
#214 = CARTESIAN_POINT ( 'NONE',  ( 0.0000000000000000000, 0.01000000000000030400, -0.06250000000000000000 ) ) ;
#215 = LENGTH_MEASURE_WITH_UNIT ( LENGTH_MEASURE( 0.02539999999999999900 ), #245 );
#216 = FACE_OUTER_BOUND ( 'NONE', #182, .T. ) ;
#217 = AXIS2_PLACEMENT_3D ( 'NONE', #228, #16, #108 ) ;
#218 = VERTEX_POINT ( 'NONE', #246 ) ;
#219 = CARTESIAN_POINT ( 'NONE',  ( 0.0000000000000000000, 1.000000000000000000, -0.05249999999999991500 ) ) ;
#220 = VECTOR ( 'NONE', #11, 39.37007874015748100 ) ;
#221 = UNCERTAINTY_MEASURE_WITH_UNIT (LENGTH_MEASURE( 1.000000000000000100E-005 ), #230, 'distance_accuracy_value', 'NONE');
#222 = FILL_AREA_STYLE_COLOUR ( '', #206 ) ;
#223 = AXIS2_PLACEMENT_3D ( 'NONE', #194, #53, #134 ) ;
#224 = FILL_AREA_STYLE ('',( #222 ) ) ;
#225 = VECTOR ( 'NONE', #170, 39.37007874015748100 ) ;
#226 = FILL_AREA_STYLE ('',( #143 ) ) ;
#227 = DIMENSIONAL_EXPONENTS ( 1.000000000000000000, 0.0000000000000000000, 0.0000000000000000000, 0.0000000000000000000, 0.0000000000000000000, 0.0000000000000000000, 0.0000000000000000000 ) ;
#228 = CARTESIAN_POINT ( 'NONE',  ( 0.0000000000000000000, 0.9899999999999999900, 0.0000000000000000000 ) ) ;
#229 = APPLICATION_CONTEXT ( 'automotive_design' ) ;
#230 =( CONVERSION_BASED_UNIT ( 'INCH', #215 ) LENGTH_UNIT ( ) NAMED_UNIT ( #227 ) );
#231 = AXIS2_PLACEMENT_3D ( 'NONE', #54, #175, #243 ) ;
#232 = CYLINDRICAL_SURFACE ( 'NONE', #176, 0.06250000000000000000 ) ;
#233 = DIRECTION ( 'NONE',  ( 0.0000000000000000000, -0.7071067811865456900, -0.7071067811865493500 ) ) ;
#234 = DIRECTION ( 'NONE',  ( -0.0000000000000000000, -1.000000000000000000, -0.0000000000000000000 ) ) ;
#235 = AXIS2_PLACEMENT_3D ( 'NONE', #121, #118, #135 ) ;
#236 = CONICAL_SURFACE ( 'NONE', #223, 0.05249999999999991500, 0.7853981633974509400 ) ;
#237 = SURFACE_SIDE_STYLE ('',( #61 ) ) ;
#238 = MECHANICAL_DESIGN_GEOMETRIC_PRESENTATION_REPRESENTATION (  '', ( #164 ), #48 ) ;
#239 = ORIENTED_EDGE ( 'NONE', *, *, #244, .F. ) ;
#240 =( CONVERSION_BASED_UNIT ( 'INCH', #241 ) LENGTH_UNIT ( ) NAMED_UNIT ( #3 ) );
#241 = LENGTH_MEASURE_WITH_UNIT ( LENGTH_MEASURE( 0.02539999999999999900 ), #12 );
#242 = CARTESIAN_POINT ( 'NONE',  ( 0.0000000000000000000, 0.01000000000000030400, 0.0000000000000000000 ) ) ;
#243 = DIRECTION ( 'NONE',  ( 0.0000000000000000000, 0.0000000000000000000, 1.000000000000000000 ) ) ;
#244 = EDGE_CURVE ( 'NONE', #18, #173, #82, .T. ) ;
#245 =( LENGTH_UNIT ( ) NAMED_UNIT ( * ) SI_UNIT ( $, .METRE. ) );
#246 = CARTESIAN_POINT ( 'NONE',  ( 0.0000000000000000000, 0.9899999999999999900, -0.06250000000000000000 ) ) ;
#247 = FACE_OUTER_BOUND ( 'NONE', #146, .T. ) ;
#248 = ORIENTED_EDGE ( 'NONE', *, *, #196, .T. ) ;
#249 = CARTESIAN_POINT ( 'NONE',  ( 0.0000000000000000000, 0.0000000000000000000, 0.05249999999999965100 ) ) ;
ENDSEC;
END-ISO-10303-21;
