ISO-10303-21;
HEADER;
FILE_DESCRIPTION (( 'STEP AP214' ),
    '1' );
FILE_NAME ('am-1033 908296A861_STEEL SLOTTED SPRING PIN REV2.STEP',
    '2018-07-24T17:53:42',
    ( '' ),
    ( '' ),
    'SwSTEP 2.0',
    'SolidWorks 2018',
    '' );
FILE_SCHEMA (( 'AUTOMOTIVE_DESIGN' ));
ENDSEC;

DATA;
#1 = CARTESIAN_POINT ( 'NONE',  ( 0.0000000000000000000, 0.0000000000000000000, -0.5000000000000000000 ) ) ;
#2 = CARTESIAN_POINT ( 'NONE',  ( -0.04480875276205559254, 0.007900992083845205863, -0.5000000000000000000 ) ) ;
#3 = EDGE_CURVE ( 'NONE', #220, #17, #163, .T. ) ;
#4 = VECTOR ( 'NONE', #75, 39.37007874015748143 ) ;
#5 = CARTESIAN_POINT ( 'NONE',  ( -1.677008927013204701E-17, 7.086413702351534956E-18, 0.9322500000000052411 ) ) ;
#6 = CARTESIAN_POINT ( 'NONE',  ( -0.02708221320783573902, -0.004775324885840494769, 0.5000000000000000000 ) ) ;
#7 = CYLINDRICAL_SURFACE ( 'NONE', #92, 0.04949999999999999539 ) ;
#8 = APPLICATION_PROTOCOL_DEFINITION ( 'draft international standard', 'automotive_design', 1998, #32 ) ;
#9 = FACE_OUTER_BOUND ( 'NONE', #215, .T. ) ;
#10 = STYLED_ITEM ( 'NONE', ( #111 ), #147 ) ;
#11 =( CONVERSION_BASED_UNIT ( 'INCH', #265 ) LENGTH_UNIT ( ) NAMED_UNIT ( #78 ) );
#12 = LINE ( 'NONE', #72, #203 ) ;
#13 =( GEOMETRIC_REPRESENTATION_CONTEXT ( 3 ) GLOBAL_UNCERTAINTY_ASSIGNED_CONTEXT ( ( #137 ) ) GLOBAL_UNIT_ASSIGNED_CONTEXT ( ( #296, #293, #178 ) ) REPRESENTATION_CONTEXT ( 'NONE', 'WORKASPACE' ) );
#14 = CLOSED_SHELL ( 'NONE', ( #201, #151, #290, #302, #208, #99, #19, #258, #105 ) ) ;
#15 = CIRCLE ( 'NONE', #38, 0.02750000000000000014 ) ;
#16 = ORIENTED_EDGE ( 'NONE', *, *, #74, .T. ) ;
#17 = VERTEX_POINT ( 'NONE', #287 ) ;
#18 = EDGE_CURVE ( 'NONE', #261, #17, #37, .T. ) ;
#19 = ADVANCED_FACE ( 'NONE', ( #159 ), #52, .F. ) ;
#20 = VECTOR ( 'NONE', #198, 39.37007874015748143 ) ;
#21 = ORIENTED_EDGE ( 'NONE', *, *, #3, .F. ) ;
#22 = AXIS2_PLACEMENT_3D ( 'NONE', #122, #144, #51 ) ;
#23 = DIRECTION ( 'NONE',  ( -0.0000000000000000000, -0.0000000000000000000, -1.000000000000000000 ) ) ;
#24 = ORIENTED_EDGE ( 'NONE', *, *, #205, .T. ) ;
#25 = CARTESIAN_POINT ( 'NONE',  ( -0.04874798377410439337, 0.008595584794512911922, 0.4620000000000000218 ) ) ;
#26 = DIRECTION ( 'NONE',  ( 0.1030943874157799617, -0.01817832206101293452, -0.9945054529214061301 ) ) ;
#27 = EDGE_CURVE ( 'NONE', #44, #318, #97, .T. ) ;
#28 = PLANE ( 'NONE',  #58 ) ;
#29 = ORIENTED_EDGE ( 'NONE', *, *, #110, .T. ) ;
#30 = VERTEX_POINT ( 'NONE', #196 ) ;
#31 = AXIS2_PLACEMENT_3D ( 'NONE', #200, #228, #60 ) ;
#32 = APPLICATION_CONTEXT ( 'automotive_design' ) ;
#33 = EDGE_CURVE ( 'NONE', #261, #244, #236, .T. ) ;
#34 = EDGE_CURVE ( 'NONE', #149, #44, #286, .T. ) ;
#35 = CARTESIAN_POINT ( 'NONE',  ( -0.04874798377410442113, -0.008595584794512901514, -0.4620000000000000218 ) ) ;
#36 = DIRECTION ( 'NONE',  ( -0.0000000000000000000, -0.0000000000000000000, -1.000000000000000000 ) ) ;
#37 = CIRCLE ( 'NONE', #237, 0.04550000000000011674 ) ;
#38 = AXIS2_PLACEMENT_3D ( 'NONE', #104, #108, #63 ) ;
#39 = ORIENTED_EDGE ( 'NONE', *, *, #189, .F. ) ;
#40 = EDGE_CURVE ( 'NONE', #244, #309, #227, .T. ) ;
#41 = LINE ( 'NONE', #256, #288 ) ;
#42 = EDGE_LOOP ( 'NONE', ( #77, #199, #167, #240 ) ) ;
#43 = EDGE_LOOP ( 'NONE', ( #86, #314, #62, #310, #80, #241 ) ) ;
#44 = VERTEX_POINT ( 'NONE', #143 ) ;
#45 = EDGE_CURVE ( 'NONE', #30, #318, #12, .T. ) ;
#46 = CARTESIAN_POINT ( 'NONE',  ( 0.04950000000000007866, -8.802148868871601100E-17, -0.4620000000000000218 ) ) ;
#47 = AXIS2_PLACEMENT_3D ( 'NONE', #246, #125, #79 ) ;
#48 = CARTESIAN_POINT ( 'NONE',  ( -0.04874798377410431705, 0.008595584794512898044, 0.5000000000000000000 ) ) ;
#49 = VECTOR ( 'NONE', #26, 39.37007874015748143 ) ;
#50 = VECTOR ( 'NONE', #124, 39.37007874015748143 ) ;
#51 = DIRECTION ( 'NONE',  ( 1.000000000000000000, 0.0000000000000000000, -0.0000000000000000000 ) ) ;
#52 = PLANE ( 'NONE',  #229 ) ;
#53 = CARTESIAN_POINT ( 'NONE',  ( -0.04874798377410431705, 0.008595584794512898044, 0.5000000000000000000 ) ) ;
#54 = CIRCLE ( 'NONE', #211, 0.04950000000000007866 ) ;
#55 = ORIENTED_EDGE ( 'NONE', *, *, #285, .F. ) ;
#56 = ORIENTED_EDGE ( 'NONE', *, *, #45, .F. ) ;
#57 = CARTESIAN_POINT ( 'NONE',  ( 0.0000000000000000000, -8.802148868871601100E-17, -0.4620000000000000218 ) ) ;
#58 = AXIS2_PLACEMENT_3D ( 'NONE', #53, #273, #98 ) ;
#59 = DIRECTION ( 'NONE',  ( 1.000000000000000000, 0.0000000000000000000, 0.0000000000000000000 ) ) ;
#60 = DIRECTION ( 'NONE',  ( 1.000000000000000000, 0.0000000000000000000, 0.0000000000000000000 ) ) ;
#61 = CARTESIAN_POINT ( 'NONE',  ( -0.02708221320783573902, -0.004775324885840494769, 0.5000000000000000000 ) ) ;
#62 = ORIENTED_EDGE ( 'NONE', *, *, #120, .T. ) ;
#63 = DIRECTION ( 'NONE',  ( 1.000000000000000000, 0.0000000000000000000, 0.0000000000000000000 ) ) ;
#64 = SURFACE_SIDE_STYLE ('',( #67 ) ) ;
#65 = ORIENTED_EDGE ( 'NONE', *, *, #33, .T. ) ;
#66 = FILL_AREA_STYLE ('',( #155 ) ) ;
#67 = SURFACE_STYLE_FILL_AREA ( #66 ) ;
#68 = LINE ( 'NONE', #76, #179 ) ;
#69 = FACE_OUTER_BOUND ( 'NONE', #114, .T. ) ;
#70 = LINE ( 'NONE', #175, #308 ) ;
#71 = VECTOR ( 'NONE', #117, 39.37007874015748143 ) ;
#72 = CARTESIAN_POINT ( 'NONE',  ( -1.677008927013204701E-17, 7.086413702351534956E-18, -0.9322500000000052411 ) ) ;
#73 = LINE ( 'NONE', #165, #4 ) ;
#74 = EDGE_CURVE ( 'NONE', #260, #30, #73, .T. ) ;
#75 = DIRECTION ( 'NONE',  ( -0.9848077530122085754, -0.1736481776669274446, 0.0000000000000000000 ) ) ;
#76 = CARTESIAN_POINT ( 'NONE',  ( -0.04874798377410431705, 0.008595584794512898044, -0.5000000000000000000 ) ) ;
#77 = ORIENTED_EDGE ( 'NONE', *, *, #34, .F. ) ;
#78 = DIMENSIONAL_EXPONENTS ( 1.000000000000000000, 0.0000000000000000000, 0.0000000000000000000, 0.0000000000000000000, 0.0000000000000000000, 0.0000000000000000000, 0.0000000000000000000 ) ;
#79 = DIRECTION ( 'NONE',  ( -1.000000000000000000, 0.0000000000000000000, 0.0000000000000000000 ) ) ;
#80 = ORIENTED_EDGE ( 'NONE', *, *, #219, .T. ) ;
#81 = CARTESIAN_POINT ( 'NONE',  ( 0.0000000000000000000, -8.802148868871601100E-17, 0.4620000000000000218 ) ) ;
#82 =( LENGTH_UNIT ( ) NAMED_UNIT ( * ) SI_UNIT ( $, .METRE. ) );
#83 =( NAMED_UNIT ( * ) PLANE_ANGLE_UNIT ( ) SI_UNIT ( $, .RADIAN. ) );
#84 = DIRECTION ( 'NONE',  ( -0.0000000000000000000, -0.0000000000000000000, -1.000000000000000000 ) ) ;
#85 = SURFACE_STYLE_USAGE ( .BOTH. , #64 ) ;
#86 = ORIENTED_EDGE ( 'NONE', *, *, #33, .F. ) ;
#87 = LINE ( 'NONE', #61, #255 ) ;
#88 = VERTEX_POINT ( 'NONE', #93 ) ;
#89 = AXIS2_PLACEMENT_3D ( 'NONE', #57, #251, #277 ) ;
#90 = ORIENTED_EDGE ( 'NONE', *, *, #294, .T. ) ;
#91 = EDGE_LOOP ( 'NONE', ( #115, #29, #224, #141, #103 ) ) ;
#92 = AXIS2_PLACEMENT_3D ( 'NONE', #305, #36, #262 ) ;
#93 = CARTESIAN_POINT ( 'NONE',  ( -0.04874798377410438643, 0.008595584794512911922, -0.4620000000000000218 ) ) ;
#94 = CARTESIAN_POINT ( 'NONE',  ( 0.0000000000000000000, -8.802148868871601100E-17, -0.4620000000000000218 ) ) ;
#95 =( LENGTH_UNIT ( ) NAMED_UNIT ( * ) SI_UNIT ( $, .METRE. ) );
#96 = FILL_AREA_STYLE_COLOUR ( '', #238 ) ;
#97 = CIRCLE ( 'NONE', #243, 0.04950000000000007866 ) ;
#98 = DIRECTION ( 'NONE',  ( -0.9848077530122085754, 0.1736481776669274446, 0.0000000000000000000 ) ) ;
#99 = ADVANCED_FACE ( 'NONE', ( #214 ), #269, .T. ) ;
#100 =( CONVERSION_BASED_UNIT ( 'INCH', #307 ) LENGTH_UNIT ( ) NAMED_UNIT ( #292 ) );
#101 = CIRCLE ( 'NONE', #134, 0.04950000000000007866 ) ;
#102 = PRESENTATION_STYLE_ASSIGNMENT (( #297 ) ) ;
#103 = ORIENTED_EDGE ( 'NONE', *, *, #176, .F. ) ;
#104 = CARTESIAN_POINT ( 'NONE',  ( 0.0000000000000000000, 0.0000000000000000000, 0.5000000000000000000 ) ) ;
#105 = ADVANCED_FACE ( 'NONE', ( #9 ), #139, .T. ) ;
#106 = APPLICATION_CONTEXT ( 'automotive_design' ) ;
#107 = AXIS2_PLACEMENT_3D ( 'NONE', #207, #135, #304 ) ;
#108 = DIRECTION ( 'NONE',  ( -0.0000000000000000000, -0.0000000000000000000, -1.000000000000000000 ) ) ;
#109 = EDGE_LOOP ( 'NONE', ( #223, #65, #180, #174 ) ) ;
#110 = EDGE_CURVE ( 'NONE', #129, #149, #301, .T. ) ;
#111 = PRESENTATION_STYLE_ASSIGNMENT (( #85 ) ) ;
#112 = PRESENTATION_LAYER_ASSIGNMENT (  '', '', ( #138 ) ) ;
#113 = LINE ( 'NONE', #272, #49 ) ;
#114 = EDGE_LOOP ( 'NONE', ( #295, #169, #55, #282 ) ) ;
#115 = ORIENTED_EDGE ( 'NONE', *, *, #219, .F. ) ;
#116 = MECHANICAL_DESIGN_GEOMETRIC_PRESENTATION_REPRESENTATION (  '', ( #138 ), #13 ) ;
#117 = DIRECTION ( 'NONE',  ( -0.0000000000000000000, -0.0000000000000000000, -1.000000000000000000 ) ) ;
#118 = DIRECTION ( 'NONE',  ( -0.1030943874157799617, -0.01817832206101293452, 0.9945054529214061301 ) ) ;
#119 = FACE_OUTER_BOUND ( 'NONE', #267, .T. ) ;
#120 = EDGE_CURVE ( 'NONE', #160, #88, #264, .T. ) ;
#121 = EDGE_LOOP ( 'NONE', ( #184, #284, #195, #56 ) ) ;
#122 = CARTESIAN_POINT ( 'NONE',  ( 0.0000000000000000000, 0.0000000000000000000, 0.5000000000000000000 ) ) ;
#123 = CARTESIAN_POINT ( 'NONE',  ( -0.02708221320783573902, -0.004775324885840494769, 0.5000000000000000000 ) ) ;
#124 = DIRECTION ( 'NONE',  ( 0.9848077530122085754, -0.1736481776669274446, 0.0000000000000000000 ) ) ;
#125 = DIRECTION ( 'NONE',  ( -0.0000000000000000000, -0.0000000000000000000, -1.000000000000000000 ) ) ;
#126 = DIMENSIONAL_EXPONENTS ( 1.000000000000000000, 0.0000000000000000000, 0.0000000000000000000, 0.0000000000000000000, 0.0000000000000000000, 0.0000000000000000000, 0.0000000000000000000 ) ;
#127 = CARTESIAN_POINT ( 'NONE',  ( -0.02708221320783573902, -0.004775324885840494769, 0.5000000000000000000 ) ) ;
#128 = CARTESIAN_POINT ( 'NONE',  ( 0.0000000000000000000, -8.802148868871601100E-17, -0.5000000000000000000 ) ) ;
#129 = VERTEX_POINT ( 'NONE', #2 ) ;
#130 = PRODUCT_DEFINITION_FORMATION_WITH_SPECIFIED_SOURCE ( 'ANY', '', #210, .NOT_KNOWN. ) ;
#131 =( NAMED_UNIT ( * ) PLANE_ANGLE_UNIT ( ) SI_UNIT ( $, .RADIAN. ) );
#132 =( NAMED_UNIT ( * ) SI_UNIT ( $, .STERADIAN. ) SOLID_ANGLE_UNIT ( ) );
#133 = MANIFOLD_SOLID_BREP ( 'Cut-Revolve1', #14 ) ;
#134 = AXIS2_PLACEMENT_3D ( 'NONE', #278, #182, #257 ) ;
#135 = DIRECTION ( 'NONE',  ( 0.0000000000000000000, 0.0000000000000000000, 1.000000000000000000 ) ) ;
#136 = CARTESIAN_POINT ( 'NONE',  ( -0.04480875276205559254, 0.007900992083845205863, 0.5000000000000000000 ) ) ;
#137 = UNCERTAINTY_MEASURE_WITH_UNIT (LENGTH_MEASURE( 1.000000000000000082E-05 ), #296, 'distance_accuracy_value', 'NONE');
#138 = STYLED_ITEM ( 'NONE', ( #102 ), #133 ) ;
#139 = CONICAL_SURFACE ( 'NONE', #140, 0.04550000000000011674, 0.1048769387302329326 ) ;
#140 = AXIS2_PLACEMENT_3D ( 'NONE', #289, #222, #194 ) ;
#141 = ORIENTED_EDGE ( 'NONE', *, *, #74, .F. ) ;
#142 = ORIENTED_EDGE ( 'NONE', *, *, #306, .F. ) ;
#143 = CARTESIAN_POINT ( 'NONE',  ( 0.04950000000000007866, -8.802148868871601100E-17, -0.4620000000000000218 ) ) ;
#144 = DIRECTION ( 'NONE',  ( 0.0000000000000000000, 0.0000000000000000000, 1.000000000000000000 ) ) ;
#145 = DIRECTION ( 'NONE',  ( -1.000000000000000000, 0.0000000000000000000, 0.0000000000000000000 ) ) ;
#146 = ORIENTED_EDGE ( 'NONE', *, *, #213, .F. ) ;
#147 = ADVANCED_BREP_SHAPE_REPRESENTATION ( 'am-1033 908296A861_STEEL SLOTTED SPRING PIN REV2', ( #133, #107 ), #266 ) ;
#148 = LENGTH_MEASURE_WITH_UNIT ( LENGTH_MEASURE( 0.02539999999999999897 ), #95 );
#149 = VERTEX_POINT ( 'NONE', #252 ) ;
#150 = AXIS2_PLACEMENT_3D ( 'NONE', #233, #212, #231 ) ;
#151 = ADVANCED_FACE ( 'NONE', ( #69 ), #263, .F. ) ;
#152 = DIRECTION ( 'NONE',  ( 0.1030943874157799617, 0.01817832206101293452, 0.9945054529214061301 ) ) ;
#153 = DIRECTION ( 'NONE',  ( -0.0000000000000000000, -0.0000000000000000000, -1.000000000000000000 ) ) ;
#154 = CIRCLE ( 'NONE', #197, 0.02750000000000000014 ) ;
#155 = FILL_AREA_STYLE_COLOUR ( '', #209 ) ;
#156 = ORIENTED_EDGE ( 'NONE', *, *, #18, .T. ) ;
#157 = APPLICATION_PROTOCOL_DEFINITION ( 'draft international standard', 'automotive_design', 1998, #106 ) ;
#158 = PRODUCT_DEFINITION ( 'UNKNOWN', '', #130, #253 ) ;
#159 = FACE_OUTER_BOUND ( 'NONE', #91, .T. ) ;
#160 = VERTEX_POINT ( 'NONE', #25 ) ;
#161 = VERTEX_POINT ( 'NONE', #202 ) ;
#162 = FACE_OUTER_BOUND ( 'NONE', #121, .T. ) ;
#163 = LINE ( 'NONE', #123, #20 ) ;
#164 =( GEOMETRIC_REPRESENTATION_CONTEXT ( 3 ) GLOBAL_UNCERTAINTY_ASSIGNED_CONTEXT ( ( #172 ) ) GLOBAL_UNIT_ASSIGNED_CONTEXT ( ( #11, #83, #234 ) ) REPRESENTATION_CONTEXT ( 'NONE', 'WORKASPACE' ) );
#165 = CARTESIAN_POINT ( 'NONE',  ( -0.02708221320783573902, -0.004775324885840494769, -0.5000000000000000000 ) ) ;
#166 = CIRCLE ( 'NONE', #150, 0.04550000000000011674 ) ;
#167 = ORIENTED_EDGE ( 'NONE', *, *, #235, .F. ) ;
#168 = ORIENTED_EDGE ( 'NONE', *, *, #45, .T. ) ;
#169 = ORIENTED_EDGE ( 'NONE', *, *, #191, .F. ) ;
#170 = DIRECTION ( 'NONE',  ( 0.0000000000000000000, 0.0000000000000000000, 1.000000000000000000 ) ) ;
#171 = FILL_AREA_STYLE ('',( #96 ) ) ;
#172 = UNCERTAINTY_MEASURE_WITH_UNIT (LENGTH_MEASURE( 1.000000000000000082E-05 ), #11, 'distance_accuracy_value', 'NONE');
#173 = PRODUCT_RELATED_PRODUCT_CATEGORY ( 'part', '', ( #210 ) ) ;
#174 = ORIENTED_EDGE ( 'NONE', *, *, #3, .T. ) ;
#175 = CARTESIAN_POINT ( 'NONE',  ( 1.334194947458019104E-17, -1.235553319527000578E-17, 0.9322500000000052411 ) ) ;
#176 = EDGE_CURVE ( 'NONE', #309, #260, #154, .T. ) ;
#177 = DIRECTION ( 'NONE',  ( -0.0000000000000000000, -0.0000000000000000000, -1.000000000000000000 ) ) ;
#178 =( NAMED_UNIT ( * ) SI_UNIT ( $, .STERADIAN. ) SOLID_ANGLE_UNIT ( ) );
#179 = VECTOR ( 'NONE', #230, 39.37007874015748143 ) ;
#180 = ORIENTED_EDGE ( 'NONE', *, *, #285, .T. ) ;
#181 = PRODUCT_CONTEXT ( 'NONE', #106, 'mechanical' ) ;
#182 = DIRECTION ( 'NONE',  ( -0.0000000000000000000, -0.0000000000000000000, -1.000000000000000000 ) ) ;
#183 = CONICAL_SURFACE ( 'NONE', #31, 0.04950000000000007866, 0.1048769387302329326 ) ;
#184 = ORIENTED_EDGE ( 'NONE', *, *, #250, .F. ) ;
#185 = CARTESIAN_POINT ( 'NONE',  ( -0.02708221320783573902, 0.004775324885840494769, -0.5000000000000000000 ) ) ;
#186 = VECTOR ( 'NONE', #152, 39.37007874015748143 ) ;
#187 = ORIENTED_EDGE ( 'NONE', *, *, #191, .T. ) ;
#188 = ORIENTED_EDGE ( 'NONE', *, *, #213, .T. ) ;
#189 = EDGE_CURVE ( 'NONE', #261, #160, #70, .T. ) ;
#190 = ORIENTED_EDGE ( 'NONE', *, *, #294, .F. ) ;
#191 = EDGE_CURVE ( 'NONE', #220, #260, #87, .T. ) ;
#192 = DIRECTION ( 'NONE',  ( -0.0000000000000000000, -0.0000000000000000000, -1.000000000000000000 ) ) ;
#193 = VECTOR ( 'NONE', #249, 39.37007874015748143 ) ;
#194 = DIRECTION ( 'NONE',  ( -1.000000000000000000, 0.0000000000000000000, 0.0000000000000000000 ) ) ;
#195 = ORIENTED_EDGE ( 'NONE', *, *, #27, .T. ) ;
#196 = CARTESIAN_POINT ( 'NONE',  ( -0.04480875276205562724, -0.007900992083845211067, -0.5000000000000000000 ) ) ;
#197 = AXIS2_PLACEMENT_3D ( 'NONE', #1, #153, #59 ) ;
#198 = DIRECTION ( 'NONE',  ( -0.9848077530122085754, -0.1736481776669274446, 0.0000000000000000000 ) ) ;
#199 = ORIENTED_EDGE ( 'NONE', *, *, #110, .F. ) ;
#200 = CARTESIAN_POINT ( 'NONE',  ( 0.0000000000000000000, -8.802148868871601100E-17, -0.4620000000000000218 ) ) ;
#201 = ADVANCED_FACE ( 'NONE', ( #162 ), #183, .T. ) ;
#202 = CARTESIAN_POINT ( 'NONE',  ( -0.04874798377410442113, -0.008595584794512901514, 0.4620000000000000218 ) ) ;
#203 = VECTOR ( 'NONE', #118, 39.37007874015748143 ) ;
#204 = DIRECTION ( 'NONE',  ( -0.0000000000000000000, -0.0000000000000000000, -1.000000000000000000 ) ) ;
#205 = EDGE_CURVE ( 'NONE', #161, #17, #312, .T. ) ;
#206 =( LENGTH_UNIT ( ) NAMED_UNIT ( * ) SI_UNIT ( $, .METRE. ) );
#207 = CARTESIAN_POINT ( 'NONE',  ( 0.0000000000000000000, 0.0000000000000000000, 0.0000000000000000000 ) ) ;
#208 = ADVANCED_FACE ( 'NONE', ( #299 ), #28, .F. ) ;
#209 = COLOUR_RGB ( '',0.7529411764705882248, 0.7529411764705882248, 0.7529411764705882248 ) ;
#210 = PRODUCT ( 'am-1033 908296A861_STEEL SLOTTED SPRING PIN REV2', 'am-1033 908296A861_STEEL SLOTTED SPRING PIN REV2', '', ( #181 ) ) ;
#211 = AXIS2_PLACEMENT_3D ( 'NONE', #81, #254, #317 ) ;
#212 = DIRECTION ( 'NONE',  ( -0.0000000000000000000, -0.0000000000000000000, -1.000000000000000000 ) ) ;
#213 = EDGE_CURVE ( 'NONE', #160, #161, #54, .T. ) ;
#214 = FACE_OUTER_BOUND ( 'NONE', #109, .T. ) ;
#215 = EDGE_LOOP ( 'NONE', ( #146, #39, #156, #271 ) ) ;
#216 = PRODUCT_DEFINITION_SHAPE ( 'NONE', 'NONE',  #158 ) ;
#217 = CONICAL_SURFACE ( 'NONE', #89, 0.04950000000000007866, 0.1048769387302329326 ) ;
#218 = PRESENTATION_LAYER_ASSIGNMENT (  '', '', ( #10 ) ) ;
#219 = EDGE_CURVE ( 'NONE', #129, #309, #68, .T. ) ;
#220 = VERTEX_POINT ( 'NONE', #127 ) ;
#221 = DIRECTION ( 'NONE',  ( -1.000000000000000000, 0.0000000000000000000, 0.0000000000000000000 ) ) ;
#222 = DIRECTION ( 'NONE',  ( -0.0000000000000000000, -0.0000000000000000000, -1.000000000000000000 ) ) ;
#223 = ORIENTED_EDGE ( 'NONE', *, *, #18, .F. ) ;
#224 = ORIENTED_EDGE ( 'NONE', *, *, #250, .T. ) ;
#225 = AXIS2_PLACEMENT_3D ( 'NONE', #6, #259, #300 ) ;
#226 = CARTESIAN_POINT ( 'NONE',  ( -0.04874798377410431705, 0.008595584794512898044, 0.5000000000000000000 ) ) ;
#227 = LINE ( 'NONE', #242, #71 ) ;
#228 = DIRECTION ( 'NONE',  ( 0.0000000000000000000, 0.0000000000000000000, 1.000000000000000000 ) ) ;
#229 = AXIS2_PLACEMENT_3D ( 'NONE', #270, #170, #311 ) ;
#230 = DIRECTION ( 'NONE',  ( 0.9848077530122085754, -0.1736481776669274446, 0.0000000000000000000 ) ) ;
#231 = DIRECTION ( 'NONE',  ( -1.000000000000000000, 0.0000000000000000000, 0.0000000000000000000 ) ) ;
#232 = EDGE_LOOP ( 'NONE', ( #245, #188, #90, #268, #142 ) ) ;
#233 = CARTESIAN_POINT ( 'NONE',  ( 0.0000000000000000000, -8.802148868871601100E-17, -0.5000000000000000000 ) ) ;
#234 =( NAMED_UNIT ( * ) SI_UNIT ( $, .STERADIAN. ) SOLID_ANGLE_UNIT ( ) );
#235 = EDGE_CURVE ( 'NONE', #88, #129, #113, .T. ) ;
#236 = LINE ( 'NONE', #48, #50 ) ;
#237 = AXIS2_PLACEMENT_3D ( 'NONE', #315, #192, #221 ) ;
#238 = COLOUR_RGB ( '',0.7529411764705882248, 0.7529411764705882248, 0.7529411764705882248 ) ;
#239 = FACE_OUTER_BOUND ( 'NONE', #42, .T. ) ;
#240 = ORIENTED_EDGE ( 'NONE', *, *, #306, .T. ) ;
#241 = ORIENTED_EDGE ( 'NONE', *, *, #40, .F. ) ;
#242 = CARTESIAN_POINT ( 'NONE',  ( -0.02708221320783573902, 0.004775324885840494769, 0.5000000000000000000 ) ) ;
#243 = AXIS2_PLACEMENT_3D ( 'NONE', #94, #23, #145 ) ;
#244 = VERTEX_POINT ( 'NONE', #248 ) ;
#245 = ORIENTED_EDGE ( 'NONE', *, *, #120, .F. ) ;
#246 = CARTESIAN_POINT ( 'NONE',  ( 0.0000000000000000000, 0.0000000000000000000, 0.5000000000000000000 ) ) ;
#247 = DIRECTION ( 'NONE',  ( 0.1046847845180417791, 0.0000000000000000000, 0.9945054529214061301 ) ) ;
#248 = CARTESIAN_POINT ( 'NONE',  ( -0.02708221320783573902, 0.004775324885840494769, 0.5000000000000000000 ) ) ;
#249 = DIRECTION ( 'NONE',  ( -0.0000000000000000000, -0.0000000000000000000, -1.000000000000000000 ) ) ;
#250 = EDGE_CURVE ( 'NONE', #149, #30, #166, .T. ) ;
#251 = DIRECTION ( 'NONE',  ( 0.0000000000000000000, 0.0000000000000000000, 1.000000000000000000 ) ) ;
#252 = CARTESIAN_POINT ( 'NONE',  ( 0.04550000000000011674, -8.802148868871601100E-17, -0.5000000000000000000 ) ) ;
#253 = PRODUCT_DEFINITION_CONTEXT ( 'detailed design', #32, 'design' ) ;
#254 = DIRECTION ( 'NONE',  ( -0.0000000000000000000, -0.0000000000000000000, -1.000000000000000000 ) ) ;
#255 = VECTOR ( 'NONE', #204, 39.37007874015748143 ) ;
#256 = CARTESIAN_POINT ( 'NONE',  ( -0.04874798377410432398, -0.008595584794512884166, 0.5000000000000000000 ) ) ;
#257 = DIRECTION ( 'NONE',  ( -1.000000000000000000, 0.0000000000000000000, 0.0000000000000000000 ) ) ;
#258 = ADVANCED_FACE ( 'NONE', ( #239 ), #217, .T. ) ;
#259 = DIRECTION ( 'NONE',  ( 0.1736481776669274446, -0.9848077530122085754, 0.0000000000000000000 ) ) ;
#260 = VERTEX_POINT ( 'NONE', #281 ) ;
#261 = VERTEX_POINT ( 'NONE', #136 ) ;
#262 = DIRECTION ( 'NONE',  ( -1.000000000000000000, 0.0000000000000000000, 0.0000000000000000000 ) ) ;
#263 = CYLINDRICAL_SURFACE ( 'NONE', #47, 0.02750000000000000014 ) ;
#264 = LINE ( 'NONE', #226, #193 ) ;
#265 = LENGTH_MEASURE_WITH_UNIT ( LENGTH_MEASURE( 0.02539999999999999897 ), #206 );
#266 =( GEOMETRIC_REPRESENTATION_CONTEXT ( 3 ) GLOBAL_UNCERTAINTY_ASSIGNED_CONTEXT ( ( #283 ) ) GLOBAL_UNIT_ASSIGNED_CONTEXT ( ( #100, #131, #132 ) ) REPRESENTATION_CONTEXT ( 'NONE', 'WORKASPACE' ) );
#267 = EDGE_LOOP ( 'NONE', ( #190, #24, #21, #187, #16, #168 ) ) ;
#268 = ORIENTED_EDGE ( 'NONE', *, *, #27, .F. ) ;
#269 = PLANE ( 'NONE',  #22 ) ;
#270 = CARTESIAN_POINT ( 'NONE',  ( 0.0000000000000000000, 0.0000000000000000000, -0.5000000000000000000 ) ) ;
#271 = ORIENTED_EDGE ( 'NONE', *, *, #205, .F. ) ;
#272 = CARTESIAN_POINT ( 'NONE',  ( 1.334194947458019104E-17, -1.235553319527000578E-17, -0.9322500000000052411 ) ) ;
#273 = DIRECTION ( 'NONE',  ( 0.1736481776669274446, 0.9848077530122085754, -0.0000000000000000000 ) ) ;
#274 = MECHANICAL_DESIGN_GEOMETRIC_PRESENTATION_REPRESENTATION (  '', ( #10 ), #164 ) ;
#275 = SURFACE_SIDE_STYLE ('',( #313 ) ) ;
#276 = VECTOR ( 'NONE', #247, 39.37007874015748143 ) ;
#277 = DIRECTION ( 'NONE',  ( 1.000000000000000000, 0.0000000000000000000, 0.0000000000000000000 ) ) ;
#278 = CARTESIAN_POINT ( 'NONE',  ( 0.0000000000000000000, -8.802148868871601100E-17, -0.4620000000000000218 ) ) ;
#279 = SHAPE_DEFINITION_REPRESENTATION ( #216, #147 ) ;
#280 = FACE_OUTER_BOUND ( 'NONE', #232, .T. ) ;
#281 = CARTESIAN_POINT ( 'NONE',  ( -0.02708221320783573902, -0.004775324885840494769, -0.5000000000000000000 ) ) ;
#282 = ORIENTED_EDGE ( 'NONE', *, *, #40, .T. ) ;
#283 = UNCERTAINTY_MEASURE_WITH_UNIT (LENGTH_MEASURE( 1.000000000000000082E-05 ), #100, 'distance_accuracy_value', 'NONE');
#284 = ORIENTED_EDGE ( 'NONE', *, *, #34, .T. ) ;
#285 = EDGE_CURVE ( 'NONE', #244, #220, #15, .T. ) ;
#286 = LINE ( 'NONE', #46, #276 ) ;
#287 = CARTESIAN_POINT ( 'NONE',  ( -0.04480875276205562724, -0.007900992083845211067, 0.5000000000000000000 ) ) ;
#288 = VECTOR ( 'NONE', #84, 39.37007874015748143 ) ;
#289 = CARTESIAN_POINT ( 'NONE',  ( 0.0000000000000000000, -8.802148868871601100E-17, 0.5000000000000000000 ) ) ;
#290 = ADVANCED_FACE ( 'NONE', ( #119 ), #303, .F. ) ;
#291 = DIRECTION ( 'NONE',  ( -1.000000000000000000, 0.0000000000000000000, 0.0000000000000000000 ) ) ;
#292 = DIMENSIONAL_EXPONENTS ( 1.000000000000000000, 0.0000000000000000000, 0.0000000000000000000, 0.0000000000000000000, 0.0000000000000000000, 0.0000000000000000000, 0.0000000000000000000 ) ;
#293 =( NAMED_UNIT ( * ) PLANE_ANGLE_UNIT ( ) SI_UNIT ( $, .RADIAN. ) );
#294 = EDGE_CURVE ( 'NONE', #161, #318, #41, .T. ) ;
#295 = ORIENTED_EDGE ( 'NONE', *, *, #176, .T. ) ;
#296 =( CONVERSION_BASED_UNIT ( 'INCH', #148 ) LENGTH_UNIT ( ) NAMED_UNIT ( #126 ) );
#297 = SURFACE_STYLE_USAGE ( .BOTH. , #275 ) ;
#298 = DIRECTION ( 'NONE',  ( -0.1030943874157799617, 0.01817832206101293452, -0.9945054529214061301 ) ) ;
#299 = FACE_OUTER_BOUND ( 'NONE', #43, .T. ) ;
#300 = DIRECTION ( 'NONE',  ( 0.9848077530122085754, 0.1736481776669274446, 0.0000000000000000000 ) ) ;
#301 = CIRCLE ( 'NONE', #316, 0.04550000000000011674 ) ;
#302 = ADVANCED_FACE ( 'NONE', ( #280 ), #7, .T. ) ;
#303 = PLANE ( 'NONE',  #225 ) ;
#304 = DIRECTION ( 'NONE',  ( 1.000000000000000000, 0.0000000000000000000, 0.0000000000000000000 ) ) ;
#305 = CARTESIAN_POINT ( 'NONE',  ( 0.0000000000000000000, 0.0000000000000000000, 0.5000000000000000000 ) ) ;
#306 = EDGE_CURVE ( 'NONE', #88, #44, #101, .T. ) ;
#307 = LENGTH_MEASURE_WITH_UNIT ( LENGTH_MEASURE( 0.02539999999999999897 ), #82 );
#308 = VECTOR ( 'NONE', #298, 39.37007874015748143 ) ;
#309 = VERTEX_POINT ( 'NONE', #185 ) ;
#310 = ORIENTED_EDGE ( 'NONE', *, *, #235, .T. ) ;
#311 = DIRECTION ( 'NONE',  ( 1.000000000000000000, 0.0000000000000000000, -0.0000000000000000000 ) ) ;
#312 = LINE ( 'NONE', #5, #186 ) ;
#313 = SURFACE_STYLE_FILL_AREA ( #171 ) ;
#314 = ORIENTED_EDGE ( 'NONE', *, *, #189, .T. ) ;
#315 = CARTESIAN_POINT ( 'NONE',  ( 0.0000000000000000000, -8.802148868871601100E-17, 0.5000000000000000000 ) ) ;
#316 = AXIS2_PLACEMENT_3D ( 'NONE', #128, #177, #291 ) ;
#317 = DIRECTION ( 'NONE',  ( -1.000000000000000000, 0.0000000000000000000, 0.0000000000000000000 ) ) ;
#318 = VERTEX_POINT ( 'NONE', #35 ) ;
ENDSEC;
END-ISO-10303-21;
