ISO-10303-21;
HEADER;
FILE_DESCRIPTION (( 'STEP AP214' ),
    '1' );
FILE_NAME ('am-1151 Spacer REV2.STEP',
    '2018-06-28T14:28:04',
    ( '' ),
    ( '' ),
    'SwSTEP 2.0',
    'SolidWorks 2017',
    '' );
FILE_SCHEMA (( 'AUTOMOTIVE_DESIGN' ));
ENDSEC;

DATA;
#1 = PLANE ( 'NONE',  #134 ) ;
#2 = PRESENTATION_LAYER_ASSIGNMENT (  '', '', ( #152 ) ) ;
#3 = CARTESIAN_POINT ( 'NONE',  ( 0.0000000000000000000, 0.0000000000000000000, -0.1449999999999999900 ) ) ;
#4 = CARTESIAN_POINT ( 'NONE',  ( 0.0000000000000000000, 0.0000000000000000000, 0.0000000000000000000 ) ) ;
#5 = ORIENTED_EDGE ( 'NONE', *, *, #220, .F. ) ;
#6 = VERTEX_POINT ( 'NONE', #145 ) ;
#7 =( LENGTH_UNIT ( ) NAMED_UNIT ( * ) SI_UNIT ( $, .METRE. ) );
#8 = CARTESIAN_POINT ( 'NONE',  ( 0.2964999999999999900, 0.0000000000000000000, 0.0000000000000000000 ) ) ;
#9 = AXIS2_PLACEMENT_3D ( 'NONE', #175, #65, #45 ) ;
#10 = ADVANCED_FACE ( 'NONE', ( #198, #191 ), #136, .T. ) ;
#11 = EDGE_LOOP ( 'NONE', ( #5, #77, #114, #67 ) ) ;
#12 = ORIENTED_EDGE ( 'NONE', *, *, #44, .F. ) ;
#13 = EDGE_CURVE ( 'NONE', #6, #193, #157, .T. ) ;
#14 = EDGE_LOOP ( 'NONE', ( #141, #177 ) ) ;
#15 = AXIS2_PLACEMENT_3D ( 'NONE', #214, #172, #210 ) ;
#16 = CLOSED_SHELL ( 'NONE', ( #179, #69, #217, #10, #36, #96 ) ) ;
#17 = VERTEX_POINT ( 'NONE', #170 ) ;
#18 = CARTESIAN_POINT ( 'NONE',  ( -0.2964999999999999900, 3.631077759471901600E-017, -0.1449999999999999900 ) ) ;
#19 = DIRECTION ( 'NONE',  ( 1.000000000000000000, 0.0000000000000000000, 0.0000000000000000000 ) ) ;
#20 = DIRECTION ( 'NONE',  ( -0.0000000000000000000, -0.0000000000000000000, 1.000000000000000000 ) ) ;
#21 = VECTOR ( 'NONE', #102, 39.37007874015748100 ) ;
#22 = AXIS2_PLACEMENT_3D ( 'NONE', #3, #151, #185 ) ;
#23 = CARTESIAN_POINT ( 'NONE',  ( 0.4374999999999998900, 0.0000000000000000000, -0.1449999999999999900 ) ) ;
#24 = CARTESIAN_POINT ( 'NONE',  ( 0.0000000000000000000, 0.0000000000000000000, 0.0000000000000000000 ) ) ;
#25 = DIRECTION ( 'NONE',  ( 0.0000000000000000000, 0.0000000000000000000, -1.000000000000000000 ) ) ;
#26 = SURFACE_SIDE_STYLE ('',( #97 ) ) ;
#27 = ORIENTED_EDGE ( 'NONE', *, *, #78, .F. ) ;
#28 = LENGTH_MEASURE_WITH_UNIT ( LENGTH_MEASURE( 0.02539999999999999900 ), #183 );
#29 = CIRCLE ( 'NONE', #99, 0.2964999999999999900 ) ;
#30 = DIRECTION ( 'NONE',  ( -1.000000000000000000, 0.0000000000000000000, -0.0000000000000000000 ) ) ;
#31 = APPLICATION_PROTOCOL_DEFINITION ( 'draft international standard', 'automotive_design', 1998, #53 ) ;
#32 = DIMENSIONAL_EXPONENTS ( 1.000000000000000000, 0.0000000000000000000, 0.0000000000000000000, 0.0000000000000000000, 0.0000000000000000000, 0.0000000000000000000, 0.0000000000000000000 ) ;
#33 = DIRECTION ( 'NONE',  ( 1.000000000000000000, 0.0000000000000000000, 0.0000000000000000000 ) ) ;
#34 = CIRCLE ( 'NONE', #112, 0.2964999999999999900 ) ;
#35 =( NAMED_UNIT ( * ) SI_UNIT ( $, .STERADIAN. ) SOLID_ANGLE_UNIT ( ) );
#36 = ADVANCED_FACE ( 'NONE', ( #208 ), #54, .T. ) ;
#37 =( GEOMETRIC_REPRESENTATION_CONTEXT ( 3 ) GLOBAL_UNCERTAINTY_ASSIGNED_CONTEXT ( ( #160 ) ) GLOBAL_UNIT_ASSIGNED_CONTEXT ( ( #216, #158, #35 ) ) REPRESENTATION_CONTEXT ( 'NONE', 'WORKASPACE' ) );
#38 = EDGE_LOOP ( 'NONE', ( #12, #126, #174, #110 ) ) ;
#39 = CYLINDRICAL_SURFACE ( 'NONE', #147, 0.4374999999999998900 ) ;
#40 = AXIS2_PLACEMENT_3D ( 'NONE', #135, #58, #19 ) ;
#41 = VERTEX_POINT ( 'NONE', #61 ) ;
#42 = ADVANCED_BREP_SHAPE_REPRESENTATION ( 'am-1151 Spacer REV2', ( #48, #164 ), #37 ) ;
#43 = DIRECTION ( 'NONE',  ( 0.0000000000000000000, -0.0000000000000000000, 1.000000000000000000 ) ) ;
#44 = EDGE_CURVE ( 'NONE', #66, #6, #29, .T. ) ;
#45 = DIRECTION ( 'NONE',  ( 1.000000000000000000, 0.0000000000000000000, 0.0000000000000000000 ) ) ;
#46 =( NAMED_UNIT ( * ) SI_UNIT ( $, .STERADIAN. ) SOLID_ANGLE_UNIT ( ) );
#47 = LENGTH_MEASURE_WITH_UNIT ( LENGTH_MEASURE( 0.02539999999999999900 ), #7 );
#48 = MANIFOLD_SOLID_BREP ( 'Revolve1', #16 ) ;
#49 = EDGE_CURVE ( 'NONE', #17, #193, #34, .T. ) ;
#50 =( NAMED_UNIT ( * ) SI_UNIT ( $, .STERADIAN. ) SOLID_ANGLE_UNIT ( ) );
#51 = APPLICATION_PROTOCOL_DEFINITION ( 'draft international standard', 'automotive_design', 1998, #94 ) ;
#52 = MECHANICAL_DESIGN_GEOMETRIC_PRESENTATION_REPRESENTATION (  '', ( #113 ), #62 ) ;
#53 = APPLICATION_CONTEXT ( 'automotive_design' ) ;
#54 = CYLINDRICAL_SURFACE ( 'NONE', #40, 0.4374999999999998900 ) ;
#55 = ORIENTED_EDGE ( 'NONE', *, *, #207, .T. ) ;
#56 = CYLINDRICAL_SURFACE ( 'NONE', #187, 0.2964999999999999900 ) ;
#57 = PRESENTATION_LAYER_ASSIGNMENT (  '', '', ( #113 ) ) ;
#58 = DIRECTION ( 'NONE',  ( -0.0000000000000000000, -0.0000000000000000000, 1.000000000000000000 ) ) ;
#59 = ORIENTED_EDGE ( 'NONE', *, *, #173, .F. ) ;
#60 = COLOUR_RGB ( '',0.7921568627450980000, 0.8196078431372548800, 0.9333333333333333500 ) ;
#61 = CARTESIAN_POINT ( 'NONE',  ( 0.4374999999999998900, 0.0000000000000000000, 0.0000000000000000000 ) ) ;
#62 =( GEOMETRIC_REPRESENTATION_CONTEXT ( 3 ) GLOBAL_UNCERTAINTY_ASSIGNED_CONTEXT ( ( #206 ) ) GLOBAL_UNIT_ASSIGNED_CONTEXT ( ( #215, #188, #50 ) ) REPRESENTATION_CONTEXT ( 'NONE', 'WORKASPACE' ) );
#63 = VECTOR ( 'NONE', #20, 39.37007874015748100 ) ;
#64 = DIRECTION ( 'NONE',  ( -0.0000000000000000000, -0.0000000000000000000, 1.000000000000000000 ) ) ;
#65 = DIRECTION ( 'NONE',  ( -0.0000000000000000000, -0.0000000000000000000, 1.000000000000000000 ) ) ;
#66 = VERTEX_POINT ( 'NONE', #18 ) ;
#67 = ORIENTED_EDGE ( 'NONE', *, *, #120, .T. ) ;
#68 = DIRECTION ( 'NONE',  ( -0.0000000000000000000, -0.0000000000000000000, 1.000000000000000000 ) ) ;
#69 = ADVANCED_FACE ( 'NONE', ( #82 ), #156, .F. ) ;
#70 =( LENGTH_UNIT ( ) NAMED_UNIT ( * ) SI_UNIT ( $, .METRE. ) );
#71 = DIRECTION ( 'NONE',  ( 1.000000000000000000, 0.0000000000000000000, 0.0000000000000000000 ) ) ;
#72 = FACE_OUTER_BOUND ( 'NONE', #125, .T. ) ;
#73 = DIMENSIONAL_EXPONENTS ( 1.000000000000000000, 0.0000000000000000000, 0.0000000000000000000, 0.0000000000000000000, 0.0000000000000000000, 0.0000000000000000000, 0.0000000000000000000 ) ;
#74 = CARTESIAN_POINT ( 'NONE',  ( 0.0000000000000000000, 0.0000000000000000000, 0.0000000000000000000 ) ) ;
#75 = DIRECTION ( 'NONE',  ( 1.000000000000000000, 0.0000000000000000000, 0.0000000000000000000 ) ) ;
#76 = EDGE_LOOP ( 'NONE', ( #59, #81, #219, #200 ) ) ;
#77 = ORIENTED_EDGE ( 'NONE', *, *, #83, .F. ) ;
#78 = EDGE_CURVE ( 'NONE', #154, #41, #79, .T. ) ;
#79 = LINE ( 'NONE', #87, #21 ) ;
#80 = AXIS2_PLACEMENT_3D ( 'NONE', #122, #211, #121 ) ;
#81 = ORIENTED_EDGE ( 'NONE', *, *, #149, .T. ) ;
#82 = FACE_OUTER_BOUND ( 'NONE', #38, .T. ) ;
#83 = EDGE_CURVE ( 'NONE', #6, #66, #169, .T. ) ;
#84 = CARTESIAN_POINT ( 'NONE',  ( -0.4374999999999998900, 5.357829746269669500E-017, 0.0000000000000000000 ) ) ;
#85 = EDGE_LOOP ( 'NONE', ( #146, #95 ) ) ;
#86 = ORIENTED_EDGE ( 'NONE', *, *, #161, .T. ) ;
#87 = CARTESIAN_POINT ( 'NONE',  ( 0.4374999999999998900, 0.0000000000000000000, 0.0000000000000000000 ) ) ;
#88 = DIRECTION ( 'NONE',  ( 1.000000000000000000, 0.0000000000000000000, 0.0000000000000000000 ) ) ;
#89 = FILL_AREA_STYLE_COLOUR ( '', #60 ) ;
#90 = PRESENTATION_STYLE_ASSIGNMENT (( #189 ) ) ;
#91 = SURFACE_SIDE_STYLE ('',( #143 ) ) ;
#92 = VECTOR ( 'NONE', #111, 39.37007874015748100 ) ;
#93 = MECHANICAL_DESIGN_GEOMETRIC_PRESENTATION_REPRESENTATION (  '', ( #152 ), #192 ) ;
#94 = APPLICATION_CONTEXT ( 'automotive_design' ) ;
#95 = ORIENTED_EDGE ( 'NONE', *, *, #44, .T. ) ;
#96 = ADVANCED_FACE ( 'NONE', ( #129, #119 ), #1, .T. ) ;
#97 = SURFACE_STYLE_FILL_AREA ( #138 ) ;
#98 = ORIENTED_EDGE ( 'NONE', *, *, #209, .F. ) ;
#99 = AXIS2_PLACEMENT_3D ( 'NONE', #186, #105, #88 ) ;
#100 = CARTESIAN_POINT ( 'NONE',  ( 0.2964999999999999900, 0.0000000000000000000, 0.0000000000000000000 ) ) ;
#101 = DIRECTION ( 'NONE',  ( -0.0000000000000000000, -0.0000000000000000000, 1.000000000000000000 ) ) ;
#102 = DIRECTION ( 'NONE',  ( -0.0000000000000000000, -0.0000000000000000000, 1.000000000000000000 ) ) ;
#103 = DIRECTION ( 'NONE',  ( 1.000000000000000000, 0.0000000000000000000, 0.0000000000000000000 ) ) ;
#104 = CARTESIAN_POINT ( 'NONE',  ( 0.0000000000000000000, 0.0000000000000000000, 0.0000000000000000000 ) ) ;
#105 = DIRECTION ( 'NONE',  ( -0.0000000000000000000, -0.0000000000000000000, 1.000000000000000000 ) ) ;
#106 = EDGE_LOOP ( 'NONE', ( #194, #197 ) ) ;
#107 = LINE ( 'NONE', #159, #92 ) ;
#108 = DIRECTION ( 'NONE',  ( 0.0000000000000000000, 0.0000000000000000000, 1.000000000000000000 ) ) ;
#109 = CIRCLE ( 'NONE', #22, 0.4374999999999998900 ) ;
#110 = ORIENTED_EDGE ( 'NONE', *, *, #13, .F. ) ;
#111 = DIRECTION ( 'NONE',  ( -0.0000000000000000000, -0.0000000000000000000, 1.000000000000000000 ) ) ;
#112 = AXIS2_PLACEMENT_3D ( 'NONE', #4, #101, #139 ) ;
#113 = STYLED_ITEM ( 'NONE', ( #90 ), #42 ) ;
#114 = ORIENTED_EDGE ( 'NONE', *, *, #13, .T. ) ;
#115 = LENGTH_MEASURE_WITH_UNIT ( LENGTH_MEASURE( 0.02539999999999999900 ), #70 );
#116 = CIRCLE ( 'NONE', #123, 0.4374999999999998900 ) ;
#117 = PRODUCT ( 'am-1151 Spacer REV2', 'am-1151 Spacer REV2', '', ( #131 ) ) ;
#118 = CARTESIAN_POINT ( 'NONE',  ( 0.2964999999999999900, 0.0000000000000000000, 0.0000000000000000000 ) ) ;
#119 = FACE_OUTER_BOUND ( 'NONE', #14, .T. ) ;
#120 = EDGE_CURVE ( 'NONE', #193, #17, #148, .T. ) ;
#121 = DIRECTION ( 'NONE',  ( 1.000000000000000000, 0.0000000000000000000, 0.0000000000000000000 ) ) ;
#122 = CARTESIAN_POINT ( 'NONE',  ( 0.0000000000000000000, 0.0000000000000000000, -0.1449999999999999900 ) ) ;
#123 = AXIS2_PLACEMENT_3D ( 'NONE', #74, #204, #75 ) ;
#124 = SURFACE_STYLE_USAGE ( .BOTH. , #26 ) ;
#125 = EDGE_LOOP ( 'NONE', ( #86, #162, #98, #27 ) ) ;
#126 = ORIENTED_EDGE ( 'NONE', *, *, #220, .T. ) ;
#127 = PRODUCT_DEFINITION ( 'UNKNOWN', '', #182, #221 ) ;
#128 = DIMENSIONAL_EXPONENTS ( 1.000000000000000000, 0.0000000000000000000, 0.0000000000000000000, 0.0000000000000000000, 0.0000000000000000000, 0.0000000000000000000, 0.0000000000000000000 ) ;
#129 = FACE_BOUND ( 'NONE', #85, .T. ) ;
#130 = PRODUCT_DEFINITION_SHAPE ( 'NONE', 'NONE',  #127 ) ;
#131 = PRODUCT_CONTEXT ( 'NONE', #53, 'mechanical' ) ;
#132 = AXIS2_PLACEMENT_3D ( 'NONE', #24, #68, #212 ) ;
#133 = CARTESIAN_POINT ( 'NONE',  ( 0.0000000000000000000, 0.0000000000000000000, 0.0000000000000000000 ) ) ;
#134 = AXIS2_PLACEMENT_3D ( 'NONE', #176, #25, #30 ) ;
#135 = CARTESIAN_POINT ( 'NONE',  ( 0.0000000000000000000, 0.0000000000000000000, 0.0000000000000000000 ) ) ;
#136 = PLANE ( 'NONE',  #222 ) ;
#137 =( NAMED_UNIT ( * ) PLANE_ANGLE_UNIT ( ) SI_UNIT ( $, .RADIAN. ) );
#138 = FILL_AREA_STYLE ('',( #196 ) ) ;
#139 = DIRECTION ( 'NONE',  ( 1.000000000000000000, 0.0000000000000000000, 0.0000000000000000000 ) ) ;
#140 = DIRECTION ( 'NONE',  ( -0.0000000000000000000, -0.0000000000000000000, 1.000000000000000000 ) ) ;
#141 = ORIENTED_EDGE ( 'NONE', *, *, #161, .F. ) ;
#142 = AXIS2_PLACEMENT_3D ( 'NONE', #190, #140, #218 ) ;
#143 = SURFACE_STYLE_FILL_AREA ( #180 ) ;
#144 = CIRCLE ( 'NONE', #142, 0.4374999999999998900 ) ;
#145 = CARTESIAN_POINT ( 'NONE',  ( 0.2964999999999999900, 0.0000000000000000000, -0.1449999999999999900 ) ) ;
#146 = ORIENTED_EDGE ( 'NONE', *, *, #83, .T. ) ;
#147 = AXIS2_PLACEMENT_3D ( 'NONE', #104, #64, #103 ) ;
#148 = CIRCLE ( 'NONE', #132, 0.2964999999999999900 ) ;
#149 = EDGE_CURVE ( 'NONE', #165, #154, #166, .T. ) ;
#150 = SHAPE_DEFINITION_REPRESENTATION ( #130, #42 ) ;
#151 = DIRECTION ( 'NONE',  ( -0.0000000000000000000, -0.0000000000000000000, 1.000000000000000000 ) ) ;
#152 = STYLED_ITEM ( 'NONE', ( #184 ), #48 ) ;
#153 =( CONVERSION_BASED_UNIT ( 'INCH', #28 ) LENGTH_UNIT ( ) NAMED_UNIT ( #128 ) );
#154 = VERTEX_POINT ( 'NONE', #23 ) ;
#155 = UNCERTAINTY_MEASURE_WITH_UNIT (LENGTH_MEASURE( 1.000000000000000100E-005 ), #153, 'distance_accuracy_value', 'NONE');
#156 = CYLINDRICAL_SURFACE ( 'NONE', #9, 0.2964999999999999900 ) ;
#157 = LINE ( 'NONE', #118, #63 ) ;
#158 =( NAMED_UNIT ( * ) PLANE_ANGLE_UNIT ( ) SI_UNIT ( $, .RADIAN. ) );
#159 = CARTESIAN_POINT ( 'NONE',  ( -0.2964999999999999900, 3.631077759471901600E-017, 0.0000000000000000000 ) ) ;
#160 = UNCERTAINTY_MEASURE_WITH_UNIT (LENGTH_MEASURE( 1.000000000000000100E-005 ), #216, 'distance_accuracy_value', 'NONE');
#161 = EDGE_CURVE ( 'NONE', #154, #165, #109, .T. ) ;
#162 = ORIENTED_EDGE ( 'NONE', *, *, #173, .T. ) ;
#163 = PRODUCT_RELATED_PRODUCT_CATEGORY ( 'part', '', ( #117 ) ) ;
#164 = AXIS2_PLACEMENT_3D ( 'NONE', #203, #108, #33 ) ;
#165 = VERTEX_POINT ( 'NONE', #171 ) ;
#166 = CIRCLE ( 'NONE', #80, 0.4374999999999998900 ) ;
#167 = DIRECTION ( 'NONE',  ( 1.000000000000000000, 0.0000000000000000000, 0.0000000000000000000 ) ) ;
#168 = FACE_OUTER_BOUND ( 'NONE', #11, .T. ) ;
#169 = CIRCLE ( 'NONE', #15, 0.2964999999999999900 ) ;
#170 = CARTESIAN_POINT ( 'NONE',  ( -0.2965000000000000400, 3.631077759471902200E-017, 0.0000000000000000000 ) ) ;
#171 = CARTESIAN_POINT ( 'NONE',  ( -0.4374999999999998900, 5.357829746269669500E-017, -0.1449999999999999900 ) ) ;
#172 = DIRECTION ( 'NONE',  ( -0.0000000000000000000, -0.0000000000000000000, 1.000000000000000000 ) ) ;
#173 = EDGE_CURVE ( 'NONE', #165, #181, #201, .T. ) ;
#174 = ORIENTED_EDGE ( 'NONE', *, *, #49, .T. ) ;
#175 = CARTESIAN_POINT ( 'NONE',  ( 0.0000000000000000000, 0.0000000000000000000, 0.0000000000000000000 ) ) ;
#176 = CARTESIAN_POINT ( 'NONE',  ( 0.2964999999999999900, 0.0000000000000000000, -0.1449999999999999900 ) ) ;
#177 = ORIENTED_EDGE ( 'NONE', *, *, #149, .F. ) ;
#178 = DIRECTION ( 'NONE',  ( -0.0000000000000000000, -0.0000000000000000000, 1.000000000000000000 ) ) ;
#179 = ADVANCED_FACE ( 'NONE', ( #72 ), #39, .T. ) ;
#180 = FILL_AREA_STYLE ('',( #89 ) ) ;
#181 = VERTEX_POINT ( 'NONE', #202 ) ;
#182 = PRODUCT_DEFINITION_FORMATION_WITH_SPECIFIED_SOURCE ( 'ANY', '', #117, .NOT_KNOWN. ) ;
#183 =( LENGTH_UNIT ( ) NAMED_UNIT ( * ) SI_UNIT ( $, .METRE. ) );
#184 = PRESENTATION_STYLE_ASSIGNMENT (( #124 ) ) ;
#185 = DIRECTION ( 'NONE',  ( 1.000000000000000000, 0.0000000000000000000, 0.0000000000000000000 ) ) ;
#186 = CARTESIAN_POINT ( 'NONE',  ( 0.0000000000000000000, 0.0000000000000000000, -0.1449999999999999900 ) ) ;
#187 = AXIS2_PLACEMENT_3D ( 'NONE', #133, #178, #71 ) ;
#188 =( NAMED_UNIT ( * ) PLANE_ANGLE_UNIT ( ) SI_UNIT ( $, .RADIAN. ) );
#189 = SURFACE_STYLE_USAGE ( .BOTH. , #91 ) ;
#190 = CARTESIAN_POINT ( 'NONE',  ( 0.0000000000000000000, 0.0000000000000000000, 0.0000000000000000000 ) ) ;
#191 = FACE_BOUND ( 'NONE', #106, .T. ) ;
#192 =( GEOMETRIC_REPRESENTATION_CONTEXT ( 3 ) GLOBAL_UNCERTAINTY_ASSIGNED_CONTEXT ( ( #155 ) ) GLOBAL_UNIT_ASSIGNED_CONTEXT ( ( #153, #137, #46 ) ) REPRESENTATION_CONTEXT ( 'NONE', 'WORKASPACE' ) );
#193 = VERTEX_POINT ( 'NONE', #8 ) ;
#194 = ORIENTED_EDGE ( 'NONE', *, *, #120, .F. ) ;
#195 = VECTOR ( 'NONE', #199, 39.37007874015748100 ) ;
#196 = FILL_AREA_STYLE_COLOUR ( '', #223 ) ;
#197 = ORIENTED_EDGE ( 'NONE', *, *, #49, .F. ) ;
#198 = FACE_OUTER_BOUND ( 'NONE', #213, .T. ) ;
#199 = DIRECTION ( 'NONE',  ( -0.0000000000000000000, -0.0000000000000000000, 1.000000000000000000 ) ) ;
#200 = ORIENTED_EDGE ( 'NONE', *, *, #207, .F. ) ;
#201 = LINE ( 'NONE', #84, #195 ) ;
#202 = CARTESIAN_POINT ( 'NONE',  ( -0.4374999999999998900, 5.357829746269669500E-017, 0.0000000000000000000 ) ) ;
#203 = CARTESIAN_POINT ( 'NONE',  ( 0.0000000000000000000, 0.0000000000000000000, 0.0000000000000000000 ) ) ;
#204 = DIRECTION ( 'NONE',  ( -0.0000000000000000000, -0.0000000000000000000, 1.000000000000000000 ) ) ;
#205 = ORIENTED_EDGE ( 'NONE', *, *, #209, .T. ) ;
#206 = UNCERTAINTY_MEASURE_WITH_UNIT (LENGTH_MEASURE( 1.000000000000000100E-005 ), #215, 'distance_accuracy_value', 'NONE');
#207 = EDGE_CURVE ( 'NONE', #181, #41, #144, .T. ) ;
#208 = FACE_OUTER_BOUND ( 'NONE', #76, .T. ) ;
#209 = EDGE_CURVE ( 'NONE', #41, #181, #116, .T. ) ;
#210 = DIRECTION ( 'NONE',  ( 1.000000000000000000, 0.0000000000000000000, 0.0000000000000000000 ) ) ;
#211 = DIRECTION ( 'NONE',  ( -0.0000000000000000000, -0.0000000000000000000, 1.000000000000000000 ) ) ;
#212 = DIRECTION ( 'NONE',  ( 1.000000000000000000, 0.0000000000000000000, 0.0000000000000000000 ) ) ;
#213 = EDGE_LOOP ( 'NONE', ( #205, #55 ) ) ;
#214 = CARTESIAN_POINT ( 'NONE',  ( 0.0000000000000000000, 0.0000000000000000000, -0.1449999999999999900 ) ) ;
#215 =( CONVERSION_BASED_UNIT ( 'INCH', #115 ) LENGTH_UNIT ( ) NAMED_UNIT ( #32 ) );
#216 =( CONVERSION_BASED_UNIT ( 'INCH', #47 ) LENGTH_UNIT ( ) NAMED_UNIT ( #73 ) );
#217 = ADVANCED_FACE ( 'NONE', ( #168 ), #56, .F. ) ;
#218 = DIRECTION ( 'NONE',  ( 1.000000000000000000, 0.0000000000000000000, 0.0000000000000000000 ) ) ;
#219 = ORIENTED_EDGE ( 'NONE', *, *, #78, .T. ) ;
#220 = EDGE_CURVE ( 'NONE', #66, #17, #107, .T. ) ;
#221 = PRODUCT_DEFINITION_CONTEXT ( 'detailed design', #94, 'design' ) ;
#222 = AXIS2_PLACEMENT_3D ( 'NONE', #100, #43, #167 ) ;
#223 = COLOUR_RGB ( '',1.000000000000000000, 0.9882352941176471000, 0.7176470588235294200 ) ;
ENDSEC;
END-ISO-10303-21;
