ISO-10303-21;
HEADER;
FILE_DESCRIPTION (( 'STEP AP214' ),
    '1' );
FILE_NAME ('am-1181 500x750x188 Spacer REV2.STEP',
    '2018-06-21T17:15:05',
    ( '' ),
    ( '' ),
    'SwSTEP 2.0',
    'SolidWorks 2017',
    '' );
FILE_SCHEMA (( 'AUTOMOTIVE_DESIGN' ));
ENDSEC;

DATA;
#1 = PRESENTATION_STYLE_ASSIGNMENT (( #79 ) ) ;
#2 = EDGE_LOOP ( 'NONE', ( #182, #155 ) ) ;
#3 = CARTESIAN_POINT ( 'NONE',  ( 0.0000000000000000000, 0.0000000000000000000, -0.1880000000000000300 ) ) ;
#4 = EDGE_LOOP ( 'NONE', ( #187, #49, #8, #23 ) ) ;
#5 = DIRECTION ( 'NONE',  ( -0.0000000000000000000, -0.0000000000000000000, 1.000000000000000000 ) ) ;
#6 = DIRECTION ( 'NONE',  ( -0.0000000000000000000, -0.0000000000000000000, 1.000000000000000000 ) ) ;
#7 = EDGE_CURVE ( 'NONE', #96, #58, #100, .T. ) ;
#8 = ORIENTED_EDGE ( 'NONE', *, *, #159, .T. ) ;
#9 = EDGE_CURVE ( 'NONE', #85, #58, #89, .T. ) ;
#10 = CARTESIAN_POINT ( 'NONE',  ( 0.0000000000000000000, 0.0000000000000000000, 7.582401355855259500E-032 ) ) ;
#11 = ORIENTED_EDGE ( 'NONE', *, *, #27, .T. ) ;
#12 =( NAMED_UNIT ( * ) SI_UNIT ( $, .STERADIAN. ) SOLID_ANGLE_UNIT ( ) );
#13 = CARTESIAN_POINT ( 'NONE',  ( -0.3750000000000000600, 4.592425496802575500E-017, 0.0000000000000000000 ) ) ;
#14 = PRESENTATION_STYLE_ASSIGNMENT (( #137 ) ) ;
#15 = DIRECTION ( 'NONE',  ( 1.000000000000000000, 0.0000000000000000000, 0.0000000000000000000 ) ) ;
#16 = AXIS2_PLACEMENT_3D ( 'NONE', #3, #44, #193 ) ;
#17 = CARTESIAN_POINT ( 'NONE',  ( 0.3750000000000000600, 0.0000000000000000000, 0.0000000000000000000 ) ) ;
#18 = CIRCLE ( 'NONE', #208, 0.3750000000000000600 ) ;
#19 = EDGE_LOOP ( 'NONE', ( #199, #171, #110, #46 ) ) ;
#20 = DIRECTION ( 'NONE',  ( -0.0000000000000000000, -0.0000000000000000000, 1.000000000000000000 ) ) ;
#21 = PRODUCT ( 'am-1181 500x750x188 Spacer REV2', 'am-1181 500x750x188 Spacer REV2', '', ( #30 ) ) ;
#22 = EDGE_CURVE ( 'NONE', #78, #107, #91, .T. ) ;
#23 = ORIENTED_EDGE ( 'NONE', *, *, #7, .T. ) ;
#24 = DIRECTION ( 'NONE',  ( 1.000000000000000000, 0.0000000000000000000, 0.0000000000000000000 ) ) ;
#25 = EDGE_LOOP ( 'NONE', ( #11, #197 ) ) ;
#26 = VECTOR ( 'NONE', #174, 39.37007874015748100 ) ;
#27 = EDGE_CURVE ( 'NONE', #176, #85, #43, .T. ) ;
#28 = ADVANCED_FACE ( 'NONE', ( #214 ), #134, .F. ) ;
#29 =( CONVERSION_BASED_UNIT ( 'INCH', #158 ) LENGTH_UNIT ( ) NAMED_UNIT ( #189 ) );
#30 = PRODUCT_CONTEXT ( 'NONE', #157, 'mechanical' ) ;
#31 = CARTESIAN_POINT ( 'NONE',  ( 0.3750000000000000600, 0.0000000000000000000, 0.0000000000000000000 ) ) ;
#32 = APPLICATION_CONTEXT ( 'automotive_design' ) ;
#33 = PRODUCT_DEFINITION_CONTEXT ( 'detailed design', #32, 'design' ) ;
#34 = CARTESIAN_POINT ( 'NONE',  ( 0.0000000000000000000, 0.0000000000000000000, 0.0000000000000000000 ) ) ;
#35 = PRODUCT_RELATED_PRODUCT_CATEGORY ( 'part', '', ( #21 ) ) ;
#36 =( LENGTH_UNIT ( ) NAMED_UNIT ( * ) SI_UNIT ( $, .METRE. ) );
#37 = CARTESIAN_POINT ( 'NONE',  ( -0.3750000000000000600, 4.592425496802575500E-017, 0.0000000000000000000 ) ) ;
#38 =( NAMED_UNIT ( * ) PLANE_ANGLE_UNIT ( ) SI_UNIT ( $, .RADIAN. ) );
#39 = VECTOR ( 'NONE', #140, 39.37007874015748100 ) ;
#40 = CARTESIAN_POINT ( 'NONE',  ( 0.2500000000000000600, 0.0000000000000000000, -0.1880000000000000300 ) ) ;
#41 = CARTESIAN_POINT ( 'NONE',  ( 0.0000000000000000000, 0.0000000000000000000, 0.0000000000000000000 ) ) ;
#42 = LENGTH_MEASURE_WITH_UNIT ( LENGTH_MEASURE( 0.02539999999999999900 ), #139 );
#43 = CIRCLE ( 'NONE', #88, 0.2500000000000000600 ) ;
#44 = DIRECTION ( 'NONE',  ( -0.0000000000000000000, -0.0000000000000000000, 1.000000000000000000 ) ) ;
#45 = DIRECTION ( 'NONE',  ( -0.0000000000000000000, -0.0000000000000000000, 1.000000000000000000 ) ) ;
#46 = ORIENTED_EDGE ( 'NONE', *, *, #159, .F. ) ;
#47 =( NAMED_UNIT ( * ) SI_UNIT ( $, .STERADIAN. ) SOLID_ANGLE_UNIT ( ) );
#48 = LINE ( 'NONE', #13, #39 ) ;
#49 = ORIENTED_EDGE ( 'NONE', *, *, #27, .F. ) ;
#50 = DIRECTION ( 'NONE',  ( 1.000000000000000000, 0.0000000000000000000, 0.0000000000000000000 ) ) ;
#51 = STYLED_ITEM ( 'NONE', ( #14 ), #215 ) ;
#52 = CARTESIAN_POINT ( 'NONE',  ( 0.0000000000000000000, 0.0000000000000000000, 0.0000000000000000000 ) ) ;
#53 = ORIENTED_EDGE ( 'NONE', *, *, #143, .T. ) ;
#54 = AXIS2_PLACEMENT_3D ( 'NONE', #10, #219, #205 ) ;
#55 = CARTESIAN_POINT ( 'NONE',  ( 0.0000000000000000000, 0.0000000000000000000, 0.0000000000000000000 ) ) ;
#56 = DIMENSIONAL_EXPONENTS ( 1.000000000000000000, 0.0000000000000000000, 0.0000000000000000000, 0.0000000000000000000, 0.0000000000000000000, 0.0000000000000000000, 0.0000000000000000000 ) ;
#57 = DIRECTION ( 'NONE',  ( -0.0000000000000000000, -0.0000000000000000000, 1.000000000000000000 ) ) ;
#58 = VERTEX_POINT ( 'NONE', #213 ) ;
#59 = AXIS2_PLACEMENT_3D ( 'NONE', #101, #6, #83 ) ;
#60 = PLANE ( 'NONE',  #121 ) ;
#61 = DIRECTION ( 'NONE',  ( -0.0000000000000000000, -0.0000000000000000000, 1.000000000000000000 ) ) ;
#62 = CIRCLE ( 'NONE', #54, 0.2500000000000002200 ) ;
#63 =( GEOMETRIC_REPRESENTATION_CONTEXT ( 3 ) GLOBAL_UNCERTAINTY_ASSIGNED_CONTEXT ( ( #106 ) ) GLOBAL_UNIT_ASSIGNED_CONTEXT ( ( #29, #156, #47 ) ) REPRESENTATION_CONTEXT ( 'NONE', 'WORKASPACE' ) );
#64 = EDGE_CURVE ( 'NONE', #107, #78, #84, .T. ) ;
#65 = ORIENTED_EDGE ( 'NONE', *, *, #108, .T. ) ;
#66 = ORIENTED_EDGE ( 'NONE', *, *, #108, .F. ) ;
#67 =( GEOMETRIC_REPRESENTATION_CONTEXT ( 3 ) GLOBAL_UNCERTAINTY_ASSIGNED_CONTEXT ( ( #119 ) ) GLOBAL_UNIT_ASSIGNED_CONTEXT ( ( #87, #186, #12 ) ) REPRESENTATION_CONTEXT ( 'NONE', 'WORKASPACE' ) );
#68 = CARTESIAN_POINT ( 'NONE',  ( 0.0000000000000000000, 0.0000000000000000000, 0.0000000000000000000 ) ) ;
#69 = ORIENTED_EDGE ( 'NONE', *, *, #102, .T. ) ;
#70 = PRODUCT_DEFINITION_FORMATION_WITH_SPECIFIED_SOURCE ( 'ANY', '', #21, .NOT_KNOWN. ) ;
#71 = AXIS2_PLACEMENT_3D ( 'NONE', #149, #5, #99 ) ;
#72 = SHAPE_DEFINITION_REPRESENTATION ( #103, #215 ) ;
#73 = ADVANCED_FACE ( 'NONE', ( #129, #169 ), #60, .T. ) ;
#74 = ORIENTED_EDGE ( 'NONE', *, *, #143, .F. ) ;
#75 = DIMENSIONAL_EXPONENTS ( 1.000000000000000000, 0.0000000000000000000, 0.0000000000000000000, 0.0000000000000000000, 0.0000000000000000000, 0.0000000000000000000, 0.0000000000000000000 ) ;
#76 =( CONVERSION_BASED_UNIT ( 'INCH', #104 ) LENGTH_UNIT ( ) NAMED_UNIT ( #75 ) );
#77 = ORIENTED_EDGE ( 'NONE', *, *, #123, .T. ) ;
#78 = VERTEX_POINT ( 'NONE', #142 ) ;
#79 = SURFACE_STYLE_USAGE ( .BOTH. , #175 ) ;
#80 =( GEOMETRIC_REPRESENTATION_CONTEXT ( 3 ) GLOBAL_UNCERTAINTY_ASSIGNED_CONTEXT ( ( #150 ) ) GLOBAL_UNIT_ASSIGNED_CONTEXT ( ( #76, #38, #191 ) ) REPRESENTATION_CONTEXT ( 'NONE', 'WORKASPACE' ) );
#81 = CYLINDRICAL_SURFACE ( 'NONE', #195, 0.3750000000000000600 ) ;
#82 = ORIENTED_EDGE ( 'NONE', *, *, #64, .F. ) ;
#83 = DIRECTION ( 'NONE',  ( 1.000000000000000000, 0.0000000000000000000, 0.0000000000000000000 ) ) ;
#84 = CIRCLE ( 'NONE', #113, 0.3750000000000000600 ) ;
#85 = VERTEX_POINT ( 'NONE', #147 ) ;
#86 = DIRECTION ( 'NONE',  ( 1.000000000000000000, 0.0000000000000000000, 0.0000000000000000000 ) ) ;
#87 =( CONVERSION_BASED_UNIT ( 'INCH', #42 ) LENGTH_UNIT ( ) NAMED_UNIT ( #56 ) );
#88 = AXIS2_PLACEMENT_3D ( 'NONE', #210, #162, #24 ) ;
#89 = LINE ( 'NONE', #132, #200 ) ;
#90 = APPLICATION_PROTOCOL_DEFINITION ( 'draft international standard', 'automotive_design', 1998, #32 ) ;
#91 = CIRCLE ( 'NONE', #71, 0.3750000000000000600 ) ;
#92 = DIRECTION ( 'NONE',  ( -0.0000000000000000000, -0.0000000000000000000, 1.000000000000000000 ) ) ;
#93 = DIRECTION ( 'NONE',  ( -0.0000000000000000000, -0.0000000000000000000, 1.000000000000000000 ) ) ;
#94 = DIRECTION ( 'NONE',  ( 1.000000000000000000, 0.0000000000000000000, 0.0000000000000000000 ) ) ;
#95 = SURFACE_STYLE_FILL_AREA ( #222 ) ;
#96 = VERTEX_POINT ( 'NONE', #178 ) ;
#97 = AXIS2_PLACEMENT_3D ( 'NONE', #41, #61, #117 ) ;
#98 = DIRECTION ( 'NONE',  ( 1.000000000000000000, 0.0000000000000000000, 0.0000000000000000000 ) ) ;
#99 = DIRECTION ( 'NONE',  ( 1.000000000000000000, 0.0000000000000000000, 0.0000000000000000000 ) ) ;
#100 = CIRCLE ( 'NONE', #59, 0.2500000000000002200 ) ;
#101 = CARTESIAN_POINT ( 'NONE',  ( 0.0000000000000000000, 0.0000000000000000000, 7.582401355855259500E-032 ) ) ;
#102 = EDGE_CURVE ( 'NONE', #130, #180, #18, .T. ) ;
#103 = PRODUCT_DEFINITION_SHAPE ( 'NONE', 'NONE',  #170 ) ;
#104 = LENGTH_MEASURE_WITH_UNIT ( LENGTH_MEASURE( 0.02539999999999999900 ), #36 );
#105 = AXIS2_PLACEMENT_3D ( 'NONE', #204, #172, #112 ) ;
#106 = UNCERTAINTY_MEASURE_WITH_UNIT (LENGTH_MEASURE( 1.000000000000000100E-005 ), #29, 'distance_accuracy_value', 'NONE');
#107 = VERTEX_POINT ( 'NONE', #207 ) ;
#108 = EDGE_CURVE ( 'NONE', #107, #180, #48, .T. ) ;
#109 = ADVANCED_FACE ( 'NONE', ( #209 ), #166, .F. ) ;
#110 = ORIENTED_EDGE ( 'NONE', *, *, #211, .T. ) ;
#111 =( LENGTH_UNIT ( ) NAMED_UNIT ( * ) SI_UNIT ( $, .METRE. ) );
#112 = DIRECTION ( 'NONE',  ( 1.000000000000000000, 0.0000000000000000000, 0.0000000000000000000 ) ) ;
#113 = AXIS2_PLACEMENT_3D ( 'NONE', #177, #196, #98 ) ;
#114 = CARTESIAN_POINT ( 'NONE',  ( 0.2500000000000001100, 0.0000000000000000000, 0.0000000000000000000 ) ) ;
#115 = CIRCLE ( 'NONE', #16, 0.2500000000000000600 ) ;
#116 = FILL_AREA_STYLE_COLOUR ( '', #217 ) ;
#117 = DIRECTION ( 'NONE',  ( 1.000000000000000000, 0.0000000000000000000, 0.0000000000000000000 ) ) ;
#118 = ORIENTED_EDGE ( 'NONE', *, *, #102, .F. ) ;
#119 = UNCERTAINTY_MEASURE_WITH_UNIT (LENGTH_MEASURE( 1.000000000000000100E-005 ), #87, 'distance_accuracy_value', 'NONE');
#120 = FACE_OUTER_BOUND ( 'NONE', #192, .T. ) ;
#121 = AXIS2_PLACEMENT_3D ( 'NONE', #40, #194, #165 ) ;
#122 = CARTESIAN_POINT ( 'NONE',  ( 0.2500000000000002200, 0.0000000000000000000, 3.791200677927629700E-032 ) ) ;
#123 = EDGE_CURVE ( 'NONE', #180, #130, #154, .T. ) ;
#124 = FILL_AREA_STYLE_COLOUR ( '', #136 ) ;
#125 = FACE_OUTER_BOUND ( 'NONE', #201, .T. ) ;
#126 = CLOSED_SHELL ( 'NONE', ( #183, #28, #109, #220, #138, #73 ) ) ;
#127 = PRESENTATION_LAYER_ASSIGNMENT (  '', '', ( #51 ) ) ;
#128 = CYLINDRICAL_SURFACE ( 'NONE', #216, 0.3750000000000000600 ) ;
#129 = FACE_BOUND ( 'NONE', #25, .T. ) ;
#130 = VERTEX_POINT ( 'NONE', #31 ) ;
#131 = MANIFOLD_SOLID_BREP ( 'Revolve1', #126 ) ;
#132 = CARTESIAN_POINT ( 'NONE',  ( -0.2500000000000001100, 3.061616997868384300E-017, 0.0000000000000000000 ) ) ;
#133 = PRESENTATION_LAYER_ASSIGNMENT (  '', '', ( #173 ) ) ;
#134 = CYLINDRICAL_SURFACE ( 'NONE', #97, 0.2500000000000001100 ) ;
#135 = MECHANICAL_DESIGN_GEOMETRIC_PRESENTATION_REPRESENTATION (  '', ( #51 ), #63 ) ;
#136 = COLOUR_RGB ( '',0.7921568627450980000, 0.8196078431372548800, 0.9333333333333333500 ) ;
#137 = SURFACE_STYLE_USAGE ( .BOTH. , #218 ) ;
#138 = ADVANCED_FACE ( 'NONE', ( #125 ), #81, .T. ) ;
#139 =( LENGTH_UNIT ( ) NAMED_UNIT ( * ) SI_UNIT ( $, .METRE. ) );
#140 = DIRECTION ( 'NONE',  ( -0.0000000000000000000, -0.0000000000000000000, 1.000000000000000000 ) ) ;
#141 = ORIENTED_EDGE ( 'NONE', *, *, #123, .F. ) ;
#142 = CARTESIAN_POINT ( 'NONE',  ( 0.3750000000000000600, 0.0000000000000000000, -0.1880000000000000300 ) ) ;
#143 = EDGE_CURVE ( 'NONE', #78, #130, #167, .T. ) ;
#144 = ORIENTED_EDGE ( 'NONE', *, *, #22, .T. ) ;
#145 = DIRECTION ( 'NONE',  ( 1.000000000000000000, 0.0000000000000000000, 0.0000000000000000000 ) ) ;
#146 = EDGE_LOOP ( 'NONE', ( #168, #82 ) ) ;
#147 = CARTESIAN_POINT ( 'NONE',  ( -0.2500000000000000600, 3.061616997868384300E-017, -0.1880000000000000300 ) ) ;
#148 = AXIS2_PLACEMENT_3D ( 'NONE', #122, #203, #50 ) ;
#149 = CARTESIAN_POINT ( 'NONE',  ( 0.0000000000000000000, 0.0000000000000000000, -0.1880000000000000300 ) ) ;
#150 = UNCERTAINTY_MEASURE_WITH_UNIT (LENGTH_MEASURE( 1.000000000000000100E-005 ), #76, 'distance_accuracy_value', 'NONE');
#151 = LINE ( 'NONE', #114, #206 ) ;
#152 = AXIS2_PLACEMENT_3D ( 'NONE', #52, #57, #188 ) ;
#153 = PLANE ( 'NONE',  #148 ) ;
#154 = CIRCLE ( 'NONE', #152, 0.3750000000000000600 ) ;
#155 = ORIENTED_EDGE ( 'NONE', *, *, #211, .F. ) ;
#156 =( NAMED_UNIT ( * ) PLANE_ANGLE_UNIT ( ) SI_UNIT ( $, .RADIAN. ) );
#157 = APPLICATION_CONTEXT ( 'automotive_design' ) ;
#158 = LENGTH_MEASURE_WITH_UNIT ( LENGTH_MEASURE( 0.02539999999999999900 ), #111 );
#159 = EDGE_CURVE ( 'NONE', #176, #96, #151, .T. ) ;
#160 = CARTESIAN_POINT ( 'NONE',  ( 0.0000000000000000000, 0.0000000000000000000, 0.0000000000000000000 ) ) ;
#161 = ORIENTED_EDGE ( 'NONE', *, *, #64, .T. ) ;
#162 = DIRECTION ( 'NONE',  ( -0.0000000000000000000, -0.0000000000000000000, 1.000000000000000000 ) ) ;
#163 = AXIS2_PLACEMENT_3D ( 'NONE', #68, #184, #86 ) ;
#164 = EDGE_LOOP ( 'NONE', ( #144, #65, #118, #74 ) ) ;
#165 = DIRECTION ( 'NONE',  ( -1.000000000000000000, 0.0000000000000000000, -0.0000000000000000000 ) ) ;
#166 = CYLINDRICAL_SURFACE ( 'NONE', #105, 0.2500000000000001100 ) ;
#167 = LINE ( 'NONE', #17, #26 ) ;
#168 = ORIENTED_EDGE ( 'NONE', *, *, #22, .F. ) ;
#169 = FACE_OUTER_BOUND ( 'NONE', #146, .T. ) ;
#170 = PRODUCT_DEFINITION ( 'UNKNOWN', '', #70, #33 ) ;
#171 = ORIENTED_EDGE ( 'NONE', *, *, #9, .T. ) ;
#172 = DIRECTION ( 'NONE',  ( -0.0000000000000000000, -0.0000000000000000000, 1.000000000000000000 ) ) ;
#173 = STYLED_ITEM ( 'NONE', ( #1 ), #131 ) ;
#174 = DIRECTION ( 'NONE',  ( -0.0000000000000000000, -0.0000000000000000000, 1.000000000000000000 ) ) ;
#175 = SURFACE_SIDE_STYLE ('',( #95 ) ) ;
#176 = VERTEX_POINT ( 'NONE', #190 ) ;
#177 = CARTESIAN_POINT ( 'NONE',  ( 0.0000000000000000000, 0.0000000000000000000, -0.1880000000000000300 ) ) ;
#178 = CARTESIAN_POINT ( 'NONE',  ( 0.2500000000000002200, 0.0000000000000000000, 7.582401355855259500E-032 ) ) ;
#179 = FACE_BOUND ( 'NONE', #2, .T. ) ;
#180 = VERTEX_POINT ( 'NONE', #37 ) ;
#181 = MECHANICAL_DESIGN_GEOMETRIC_PRESENTATION_REPRESENTATION (  '', ( #173 ), #80 ) ;
#182 = ORIENTED_EDGE ( 'NONE', *, *, #7, .F. ) ;
#183 = ADVANCED_FACE ( 'NONE', ( #212 ), #128, .T. ) ;
#184 = DIRECTION ( 'NONE',  ( 0.0000000000000000000, 0.0000000000000000000, 1.000000000000000000 ) ) ;
#185 = APPLICATION_PROTOCOL_DEFINITION ( 'draft international standard', 'automotive_design', 1998, #157 ) ;
#186 =( NAMED_UNIT ( * ) PLANE_ANGLE_UNIT ( ) SI_UNIT ( $, .RADIAN. ) );
#187 = ORIENTED_EDGE ( 'NONE', *, *, #9, .F. ) ;
#188 = DIRECTION ( 'NONE',  ( 1.000000000000000000, 0.0000000000000000000, 0.0000000000000000000 ) ) ;
#189 = DIMENSIONAL_EXPONENTS ( 1.000000000000000000, 0.0000000000000000000, 0.0000000000000000000, 0.0000000000000000000, 0.0000000000000000000, 0.0000000000000000000, 0.0000000000000000000 ) ;
#190 = CARTESIAN_POINT ( 'NONE',  ( 0.2500000000000000600, 0.0000000000000000000, -0.1880000000000000300 ) ) ;
#191 =( NAMED_UNIT ( * ) SI_UNIT ( $, .STERADIAN. ) SOLID_ANGLE_UNIT ( ) );
#192 = EDGE_LOOP ( 'NONE', ( #69, #77 ) ) ;
#193 = DIRECTION ( 'NONE',  ( 1.000000000000000000, 0.0000000000000000000, 0.0000000000000000000 ) ) ;
#194 = DIRECTION ( 'NONE',  ( 0.0000000000000000000, 0.0000000000000000000, -1.000000000000000000 ) ) ;
#195 = AXIS2_PLACEMENT_3D ( 'NONE', #55, #93, #94 ) ;
#196 = DIRECTION ( 'NONE',  ( -0.0000000000000000000, -0.0000000000000000000, 1.000000000000000000 ) ) ;
#197 = ORIENTED_EDGE ( 'NONE', *, *, #198, .T. ) ;
#198 = EDGE_CURVE ( 'NONE', #85, #176, #115, .T. ) ;
#199 = ORIENTED_EDGE ( 'NONE', *, *, #198, .F. ) ;
#200 = VECTOR ( 'NONE', #45, 39.37007874015748100 ) ;
#201 = EDGE_LOOP ( 'NONE', ( #66, #161, #53, #141 ) ) ;
#202 = FILL_AREA_STYLE ('',( #124 ) ) ;
#203 = DIRECTION ( 'NONE',  ( 0.0000000000000000000, -0.0000000000000000000, 1.000000000000000000 ) ) ;
#204 = CARTESIAN_POINT ( 'NONE',  ( 0.0000000000000000000, 0.0000000000000000000, 0.0000000000000000000 ) ) ;
#205 = DIRECTION ( 'NONE',  ( 1.000000000000000000, 0.0000000000000000000, 0.0000000000000000000 ) ) ;
#206 = VECTOR ( 'NONE', #20, 39.37007874015748100 ) ;
#207 = CARTESIAN_POINT ( 'NONE',  ( -0.3750000000000000600, 4.592425496802575500E-017, -0.1880000000000000300 ) ) ;
#208 = AXIS2_PLACEMENT_3D ( 'NONE', #34, #221, #15 ) ;
#209 = FACE_OUTER_BOUND ( 'NONE', #4, .T. ) ;
#210 = CARTESIAN_POINT ( 'NONE',  ( 0.0000000000000000000, 0.0000000000000000000, -0.1880000000000000300 ) ) ;
#211 = EDGE_CURVE ( 'NONE', #58, #96, #62, .T. ) ;
#212 = FACE_OUTER_BOUND ( 'NONE', #164, .T. ) ;
#213 = CARTESIAN_POINT ( 'NONE',  ( -0.2500000000000002200, 3.061616997868385500E-017, 7.582401355855259500E-032 ) ) ;
#214 = FACE_OUTER_BOUND ( 'NONE', #19, .T. ) ;
#215 = ADVANCED_BREP_SHAPE_REPRESENTATION ( 'am-1181 500x750x188 Spacer REV2', ( #131, #163 ), #67 ) ;
#216 = AXIS2_PLACEMENT_3D ( 'NONE', #160, #92, #145 ) ;
#217 = COLOUR_RGB ( '',1.000000000000000000, 0.9882352941176471000, 0.7176470588235294200 ) ;
#218 = SURFACE_SIDE_STYLE ('',( #223 ) ) ;
#219 = DIRECTION ( 'NONE',  ( -0.0000000000000000000, -0.0000000000000000000, 1.000000000000000000 ) ) ;
#220 = ADVANCED_FACE ( 'NONE', ( #120, #179 ), #153, .T. ) ;
#221 = DIRECTION ( 'NONE',  ( -0.0000000000000000000, -0.0000000000000000000, 1.000000000000000000 ) ) ;
#222 = FILL_AREA_STYLE ('',( #116 ) ) ;
#223 = SURFACE_STYLE_FILL_AREA ( #202 ) ;
ENDSEC;
END-ISO-10303-21;
