ISO-10303-21;
HEADER;
FILE_DESCRIPTION (( 'STEP AP214' ),
    '1' );
FILE_NAME ('am-1221 0.5'''' i.d. Plastic Washer REV2.STEP',
    '2018-06-28T14:11:39',
    ( '' ),
    ( '' ),
    'SwSTEP 2.0',
    'SolidWorks 2017',
    '' );
FILE_SCHEMA (( 'AUTOMOTIVE_DESIGN' ));
ENDSEC;

DATA;
#1 = CARTESIAN_POINT ( 'NONE',  ( 0.0000000000000000000, 0.0000000000000000000, 0.0000000000000000000 ) ) ;
#2 = COLOUR_RGB ( '',0.1019607843137254900, 0.1019607843137254900, 0.1019607843137254900 ) ;
#3 = ADVANCED_FACE ( 'NONE', ( #53 ), #136, .T. ) ;
#4 = SURFACE_STYLE_FILL_AREA ( #17 ) ;
#5 = VECTOR ( 'NONE', #195, 39.37007874015748100 ) ;
#6 = ORIENTED_EDGE ( 'NONE', *, *, #124, .F. ) ;
#7 = PRESENTATION_LAYER_ASSIGNMENT (  '', '', ( #67 ) ) ;
#8 = PRODUCT_CONTEXT ( 'NONE', #68, 'mechanical' ) ;
#9 = DIRECTION ( 'NONE',  ( 0.0000000000000000000, 1.000000000000000000, 0.0000000000000000000 ) ) ;
#10 =( GEOMETRIC_REPRESENTATION_CONTEXT ( 3 ) GLOBAL_UNCERTAINTY_ASSIGNED_CONTEXT ( ( #16 ) ) GLOBAL_UNIT_ASSIGNED_CONTEXT ( ( #50, #172, #101 ) ) REPRESENTATION_CONTEXT ( 'NONE', 'WORKASPACE' ) );
#11 = FACE_BOUND ( 'NONE', #153, .T. ) ;
#12 = SURFACE_STYLE_USAGE ( .BOTH. , #13 ) ;
#13 = SURFACE_SIDE_STYLE ('',( #184 ) ) ;
#14 = DIRECTION ( 'NONE',  ( -0.0000000000000000000, -1.000000000000000000, -0.0000000000000000000 ) ) ;
#15 = DIRECTION ( 'NONE',  ( 0.0000000000000000000, 1.000000000000000000, 0.0000000000000000000 ) ) ;
#16 = UNCERTAINTY_MEASURE_WITH_UNIT (LENGTH_MEASURE( 1.000000000000000100E-005 ), #50, 'distance_accuracy_value', 'NONE');
#17 = FILL_AREA_STYLE ('',( #110 ) ) ;
#18 = MECHANICAL_DESIGN_GEOMETRIC_PRESENTATION_REPRESENTATION (  '', ( #67 ), #10 ) ;
#19 = SHAPE_DEFINITION_REPRESENTATION ( #160, #143 ) ;
#20 = FACE_OUTER_BOUND ( 'NONE', #72, .T. ) ;
#21 = VERTEX_POINT ( 'NONE', #91 ) ;
#22 = AXIS2_PLACEMENT_3D ( 'NONE', #219, #82, #45 ) ;
#23 = CARTESIAN_POINT ( 'NONE',  ( 0.0000000000000000000, 0.05999999999999999800, 0.0000000000000000000 ) ) ;
#24 = AXIS2_PLACEMENT_3D ( 'NONE', #123, #80, #146 ) ;
#25 = CARTESIAN_POINT ( 'NONE',  ( 0.0000000000000000000, 0.05999999999999999800, -0.2500000000000000000 ) ) ;
#26 = VERTEX_POINT ( 'NONE', #102 ) ;
#27 = VERTEX_POINT ( 'NONE', #162 ) ;
#28 = PLANE ( 'NONE',  #200 ) ;
#29 = CARTESIAN_POINT ( 'NONE',  ( 4.592425496802573600E-017, 0.0000000000000000000, 0.3750000000000000600 ) ) ;
#30 = ORIENTED_EDGE ( 'NONE', *, *, #70, .T. ) ;
#31 = EDGE_LOOP ( 'NONE', ( #209, #208, #104, #83 ) ) ;
#32 = EDGE_LOOP ( 'NONE', ( #6, #112 ) ) ;
#33 = EDGE_CURVE ( 'NONE', #137, #118, #51, .T. ) ;
#34 = ADVANCED_FACE ( 'NONE', ( #174, #11 ), #161, .F. ) ;
#35 = AXIS2_PLACEMENT_3D ( 'NONE', #69, #131, #170 ) ;
#36 = ORIENTED_EDGE ( 'NONE', *, *, #171, .F. ) ;
#37 = EDGE_CURVE ( 'NONE', #21, #39, #173, .T. ) ;
#38 = APPLICATION_CONTEXT ( 'automotive_design' ) ;
#39 = VERTEX_POINT ( 'NONE', #121 ) ;
#40 = EDGE_CURVE ( 'NONE', #41, #27, #218, .T. ) ;
#41 = VERTEX_POINT ( 'NONE', #139 ) ;
#42 = DIRECTION ( 'NONE',  ( 0.0000000000000000000, 0.0000000000000000000, 1.000000000000000000 ) ) ;
#43 = MANIFOLD_SOLID_BREP ( 'Boss-Extrude1', #132 ) ;
#44 = CARTESIAN_POINT ( 'NONE',  ( 0.0000000000000000000, 0.05999999999999999800, 0.0000000000000000000 ) ) ;
#45 = DIRECTION ( 'NONE',  ( 0.0000000000000000000, 0.0000000000000000000, -1.000000000000000000 ) ) ;
#46 = LENGTH_MEASURE_WITH_UNIT ( LENGTH_MEASURE( 0.02539999999999999900 ), #63 );
#47 = ORIENTED_EDGE ( 'NONE', *, *, #40, .F. ) ;
#48 = AXIS2_PLACEMENT_3D ( 'NONE', #196, #9, #42 ) ;
#49 = CARTESIAN_POINT ( 'NONE',  ( 0.0000000000000000000, 0.05999999999999999800, 0.0000000000000000000 ) ) ;
#50 =( CONVERSION_BASED_UNIT ( 'INCH', #133 ) LENGTH_UNIT ( ) NAMED_UNIT ( #54 ) );
#51 = LINE ( 'NONE', #58, #5 ) ;
#52 = UNCERTAINTY_MEASURE_WITH_UNIT (LENGTH_MEASURE( 1.000000000000000100E-005 ), #92, 'distance_accuracy_value', 'NONE');
#53 = FACE_OUTER_BOUND ( 'NONE', #157, .T. ) ;
#54 = DIMENSIONAL_EXPONENTS ( 1.000000000000000000, 0.0000000000000000000, 0.0000000000000000000, 0.0000000000000000000, 0.0000000000000000000, 0.0000000000000000000, 0.0000000000000000000 ) ;
#55 = PRESENTATION_LAYER_ASSIGNMENT (  '', '', ( #138 ) ) ;
#56 = CARTESIAN_POINT ( 'NONE',  ( 0.0000000000000000000, 0.0000000000000000000, 0.0000000000000000000 ) ) ;
#57 = VERTEX_POINT ( 'NONE', #197 ) ;
#58 = CARTESIAN_POINT ( 'NONE',  ( 4.592425496802573600E-017, 0.05999999999999999800, 0.3750000000000000600 ) ) ;
#59 = CARTESIAN_POINT ( 'NONE',  ( 3.061616997868382400E-017, 0.05999999999999999800, 0.2500000000000000000 ) ) ;
#60 = DIRECTION ( 'NONE',  ( 0.0000000000000000000, 0.0000000000000000000, 1.000000000000000000 ) ) ;
#61 = MECHANICAL_DESIGN_GEOMETRIC_PRESENTATION_REPRESENTATION (  '', ( #138 ), #166 ) ;
#62 = PRESENTATION_STYLE_ASSIGNMENT (( #128 ) ) ;
#63 =( LENGTH_UNIT ( ) NAMED_UNIT ( * ) SI_UNIT ( $, .METRE. ) );
#64 = DIRECTION ( 'NONE',  ( 0.0000000000000000000, 0.0000000000000000000, 1.000000000000000000 ) ) ;
#65 = PRODUCT ( 'am-1221 0.5'''''''' i.d. Plastic Washer REV2', 'am-1221 0.5'''''''' i.d. Plastic Washer REV2', '', ( #8 ) ) ;
#66 = SURFACE_SIDE_STYLE ('',( #4 ) ) ;
#67 = STYLED_ITEM ( 'NONE', ( #62 ), #143 ) ;
#68 = APPLICATION_CONTEXT ( 'automotive_design' ) ;
#69 = CARTESIAN_POINT ( 'NONE',  ( 0.0000000000000000000, 0.05999999999999999800, 0.0000000000000000000 ) ) ;
#70 = EDGE_CURVE ( 'NONE', #137, #41, #179, .T. ) ;
#71 = CIRCLE ( 'NONE', #147, 0.3750000000000000600 ) ;
#72 = EDGE_LOOP ( 'NONE', ( #169, #30 ) ) ;
#73 = ORIENTED_EDGE ( 'NONE', *, *, #70, .F. ) ;
#74 = PRODUCT_DEFINITION_FORMATION_WITH_SPECIFIED_SOURCE ( 'ANY', '', #65, .NOT_KNOWN. ) ;
#75 = FACE_OUTER_BOUND ( 'NONE', #31, .T. ) ;
#76 = ORIENTED_EDGE ( 'NONE', *, *, #40, .T. ) ;
#77 = DIRECTION ( 'NONE',  ( 0.0000000000000000000, 1.000000000000000000, 0.0000000000000000000 ) ) ;
#78 = AXIS2_PLACEMENT_3D ( 'NONE', #23, #90, #158 ) ;
#79 = DIRECTION ( 'NONE',  ( 0.0000000000000000000, 0.0000000000000000000, 1.000000000000000000 ) ) ;
#80 = DIRECTION ( 'NONE',  ( 0.0000000000000000000, 1.000000000000000000, 0.0000000000000000000 ) ) ;
#81 = FACE_BOUND ( 'NONE', #115, .T. ) ;
#82 = DIRECTION ( 'NONE',  ( -0.0000000000000000000, -1.000000000000000000, -0.0000000000000000000 ) ) ;
#83 = ORIENTED_EDGE ( 'NONE', *, *, #135, .F. ) ;
#84 =( CONVERSION_BASED_UNIT ( 'INCH', #202 ) LENGTH_UNIT ( ) NAMED_UNIT ( #190 ) );
#85 = CIRCLE ( 'NONE', #24, 0.2500000000000000000 ) ;
#86 = EDGE_LOOP ( 'NONE', ( #73, #198, #88, #47 ) ) ;
#87 = PRODUCT_RELATED_PRODUCT_CATEGORY ( 'part', '', ( #65 ) ) ;
#88 = ORIENTED_EDGE ( 'NONE', *, *, #211, .T. ) ;
#89 = PRODUCT_DEFINITION_CONTEXT ( 'detailed design', #38, 'design' ) ;
#90 = DIRECTION ( 'NONE',  ( -0.0000000000000000000, -1.000000000000000000, -0.0000000000000000000 ) ) ;
#91 = CARTESIAN_POINT ( 'NONE',  ( 0.0000000000000000000, 0.05999999999999999800, -0.2500000000000000000 ) ) ;
#92 =( CONVERSION_BASED_UNIT ( 'INCH', #46 ) LENGTH_UNIT ( ) NAMED_UNIT ( #205 ) );
#93 = DIRECTION ( 'NONE',  ( 0.0000000000000000000, -0.0000000000000000000, 1.000000000000000000 ) ) ;
#94 = DIRECTION ( 'NONE',  ( -0.0000000000000000000, -1.000000000000000000, -0.0000000000000000000 ) ) ;
#95 = CIRCLE ( 'NONE', #191, 0.2500000000000000000 ) ;
#96 = ORIENTED_EDGE ( 'NONE', *, *, #154, .F. ) ;
#97 = CYLINDRICAL_SURFACE ( 'NONE', #35, 0.2500000000000000000 ) ;
#98 = AXIS2_PLACEMENT_3D ( 'NONE', #44, #125, #126 ) ;
#99 = LINE ( 'NONE', #59, #114 ) ;
#100 = ORIENTED_EDGE ( 'NONE', *, *, #37, .T. ) ;
#101 =( NAMED_UNIT ( * ) SI_UNIT ( $, .STERADIAN. ) SOLID_ANGLE_UNIT ( ) );
#102 = CARTESIAN_POINT ( 'NONE',  ( 3.061616997868382400E-017, 0.0000000000000000000, 0.2500000000000000000 ) ) ;
#103 = EDGE_CURVE ( 'NONE', #39, #26, #99, .T. ) ;
#104 = ORIENTED_EDGE ( 'NONE', *, *, #159, .T. ) ;
#105 = CARTESIAN_POINT ( 'NONE',  ( 0.0000000000000000000, 0.05999999999999999800, 0.0000000000000000000 ) ) ;
#106 = AXIS2_PLACEMENT_3D ( 'NONE', #216, #163, #199 ) ;
#107 = FILL_AREA_STYLE ('',( #220 ) ) ;
#108 = CIRCLE ( 'NONE', #176, 0.3750000000000000600 ) ;
#109 =( NAMED_UNIT ( * ) SI_UNIT ( $, .STERADIAN. ) SOLID_ANGLE_UNIT ( ) );
#110 = FILL_AREA_STYLE_COLOUR ( '', #140 ) ;
#111 = ADVANCED_FACE ( 'NONE', ( #134 ), #149, .T. ) ;
#112 = ORIENTED_EDGE ( 'NONE', *, *, #211, .F. ) ;
#113 = EDGE_CURVE ( 'NONE', #57, #26, #95, .T. ) ;
#114 = VECTOR ( 'NONE', #185, 39.37007874015748100 ) ;
#115 = EDGE_LOOP ( 'NONE', ( #141, #96 ) ) ;
#116 = PRODUCT_DEFINITION ( 'UNKNOWN', '', #74, #89 ) ;
#117 = DIRECTION ( 'NONE',  ( 0.0000000000000000000, 0.0000000000000000000, 1.000000000000000000 ) ) ;
#118 = VERTEX_POINT ( 'NONE', #29 ) ;
#119 = DIRECTION ( 'NONE',  ( 0.0000000000000000000, -0.0000000000000000000, 1.000000000000000000 ) ) ;
#120 = AXIS2_PLACEMENT_3D ( 'NONE', #150, #117, #180 ) ;
#121 = CARTESIAN_POINT ( 'NONE',  ( 3.061616997868382400E-017, 0.05999999999999999800, 0.2500000000000000000 ) ) ;
#122 = DIRECTION ( 'NONE',  ( 0.0000000000000000000, 1.000000000000000000, 0.0000000000000000000 ) ) ;
#123 = CARTESIAN_POINT ( 'NONE',  ( 0.0000000000000000000, 0.0000000000000000000, 0.0000000000000000000 ) ) ;
#124 = EDGE_CURVE ( 'NONE', #27, #118, #181, .T. ) ;
#125 = DIRECTION ( 'NONE',  ( 0.0000000000000000000, 1.000000000000000000, 0.0000000000000000000 ) ) ;
#126 = DIRECTION ( 'NONE',  ( 0.0000000000000000000, 0.0000000000000000000, 1.000000000000000000 ) ) ;
#127 = DIRECTION ( 'NONE',  ( 0.0000000000000000000, 1.000000000000000000, 0.0000000000000000000 ) ) ;
#128 = SURFACE_STYLE_USAGE ( .BOTH. , #66 ) ;
#129 = ADVANCED_FACE ( 'NONE', ( #20, #81 ), #28, .T. ) ;
#130 = VECTOR ( 'NONE', #94, 39.37007874015748100 ) ;
#131 = DIRECTION ( 'NONE',  ( -0.0000000000000000000, -1.000000000000000000, -0.0000000000000000000 ) ) ;
#132 = CLOSED_SHELL ( 'NONE', ( #210, #111, #129, #34, #3, #177 ) ) ;
#133 = LENGTH_MEASURE_WITH_UNIT ( LENGTH_MEASURE( 0.02539999999999999900 ), #151 );
#134 = FACE_OUTER_BOUND ( 'NONE', #86, .T. ) ;
#135 = EDGE_CURVE ( 'NONE', #26, #57, #85, .T. ) ;
#136 = CYLINDRICAL_SURFACE ( 'NONE', #78, 0.3750000000000000600 ) ;
#137 = VERTEX_POINT ( 'NONE', #142 ) ;
#138 = STYLED_ITEM ( 'NONE', ( #212 ), #43 ) ;
#139 = CARTESIAN_POINT ( 'NONE',  ( 0.0000000000000000000, 0.05999999999999999800, -0.3750000000000000600 ) ) ;
#140 = COLOUR_RGB ( '',0.1019607843137254900, 0.1019607843137254900, 0.1019607843137254900 ) ;
#141 = ORIENTED_EDGE ( 'NONE', *, *, #37, .F. ) ;
#142 = CARTESIAN_POINT ( 'NONE',  ( 4.592425496802573600E-017, 0.05999999999999999800, 0.3750000000000000600 ) ) ;
#143 = ADVANCED_BREP_SHAPE_REPRESENTATION ( 'am-1221 0.5'''''''' i.d. Plastic Washer REV2', ( #43, #120 ), #207 ) ;
#144 = DIRECTION ( 'NONE',  ( 0.0000000000000000000, 1.000000000000000000, 0.0000000000000000000 ) ) ;
#145 = CYLINDRICAL_SURFACE ( 'NONE', #22, 0.2500000000000000000 ) ;
#146 = DIRECTION ( 'NONE',  ( 0.0000000000000000000, 0.0000000000000000000, 1.000000000000000000 ) ) ;
#147 = AXIS2_PLACEMENT_3D ( 'NONE', #1, #127, #189 ) ;
#148 = DIRECTION ( 'NONE',  ( 0.0000000000000000000, 1.000000000000000000, 0.0000000000000000000 ) ) ;
#149 = CYLINDRICAL_SURFACE ( 'NONE', #106, 0.3750000000000000600 ) ;
#150 = CARTESIAN_POINT ( 'NONE',  ( 0.0000000000000000000, 0.0000000000000000000, 0.0000000000000000000 ) ) ;
#151 =( LENGTH_UNIT ( ) NAMED_UNIT ( * ) SI_UNIT ( $, .METRE. ) );
#152 = ORIENTED_EDGE ( 'NONE', *, *, #103, .T. ) ;
#153 = EDGE_LOOP ( 'NONE', ( #222, #164 ) ) ;
#154 = EDGE_CURVE ( 'NONE', #39, #21, #221, .T. ) ;
#155 = APPLICATION_PROTOCOL_DEFINITION ( 'draft international standard', 'automotive_design', 1998, #38 ) ;
#156 = ORIENTED_EDGE ( 'NONE', *, *, #33, .F. ) ;
#157 = EDGE_LOOP ( 'NONE', ( #156, #36, #76, #175 ) ) ;
#158 = DIRECTION ( 'NONE',  ( 0.0000000000000000000, 0.0000000000000000000, -1.000000000000000000 ) ) ;
#159 = EDGE_CURVE ( 'NONE', #21, #57, #194, .T. ) ;
#160 = PRODUCT_DEFINITION_SHAPE ( 'NONE', 'NONE',  #116 ) ;
#161 = PLANE ( 'NONE',  #206 ) ;
#162 = CARTESIAN_POINT ( 'NONE',  ( 0.0000000000000000000, 0.0000000000000000000, -0.3750000000000000600 ) ) ;
#163 = DIRECTION ( 'NONE',  ( -0.0000000000000000000, -1.000000000000000000, -0.0000000000000000000 ) ) ;
#164 = ORIENTED_EDGE ( 'NONE', *, *, #135, .T. ) ;
#165 = CARTESIAN_POINT ( 'NONE',  ( 0.0000000000000000000, 0.0000000000000000000, 0.0000000000000000000 ) ) ;
#166 =( GEOMETRIC_REPRESENTATION_CONTEXT ( 3 ) GLOBAL_UNCERTAINTY_ASSIGNED_CONTEXT ( ( #52 ) ) GLOBAL_UNIT_ASSIGNED_CONTEXT ( ( #92, #201, #223 ) ) REPRESENTATION_CONTEXT ( 'NONE', 'WORKASPACE' ) );
#167 = DIRECTION ( 'NONE',  ( 0.0000000000000000000, 0.0000000000000000000, 1.000000000000000000 ) ) ;
#168 = CARTESIAN_POINT ( 'NONE',  ( 0.0000000000000000000, 0.05999999999999999800, 0.0000000000000000000 ) ) ;
#169 = ORIENTED_EDGE ( 'NONE', *, *, #171, .T. ) ;
#170 = DIRECTION ( 'NONE',  ( 0.0000000000000000000, 0.0000000000000000000, -1.000000000000000000 ) ) ;
#171 = EDGE_CURVE ( 'NONE', #41, #137, #108, .T. ) ;
#172 =( NAMED_UNIT ( * ) PLANE_ANGLE_UNIT ( ) SI_UNIT ( $, .RADIAN. ) );
#173 = CIRCLE ( 'NONE', #48, 0.2500000000000000000 ) ;
#174 = FACE_OUTER_BOUND ( 'NONE', #32, .T. ) ;
#175 = ORIENTED_EDGE ( 'NONE', *, *, #124, .T. ) ;
#176 = AXIS2_PLACEMENT_3D ( 'NONE', #49, #144, #64 ) ;
#177 = ADVANCED_FACE ( 'NONE', ( #75 ), #145, .F. ) ;
#178 = VECTOR ( 'NONE', #14, 39.37007874015748100 ) ;
#179 = CIRCLE ( 'NONE', #98, 0.3750000000000000600 ) ;
#180 = DIRECTION ( 'NONE',  ( 1.000000000000000000, 0.0000000000000000000, 0.0000000000000000000 ) ) ;
#181 = CIRCLE ( 'NONE', #217, 0.3750000000000000600 ) ;
#182 = ORIENTED_EDGE ( 'NONE', *, *, #159, .F. ) ;
#183 = AXIS2_PLACEMENT_3D ( 'NONE', #105, #15, #60 ) ;
#184 = SURFACE_STYLE_FILL_AREA ( #107 ) ;
#185 = DIRECTION ( 'NONE',  ( -0.0000000000000000000, -1.000000000000000000, -0.0000000000000000000 ) ) ;
#186 = DIRECTION ( 'NONE',  ( 0.0000000000000000000, 1.000000000000000000, 0.0000000000000000000 ) ) ;
#187 = CARTESIAN_POINT ( 'NONE',  ( 0.0000000000000000000, 0.0000000000000000000, 0.0000000000000000000 ) ) ;
#188 =( LENGTH_UNIT ( ) NAMED_UNIT ( * ) SI_UNIT ( $, .METRE. ) );
#189 = DIRECTION ( 'NONE',  ( 0.0000000000000000000, 0.0000000000000000000, 1.000000000000000000 ) ) ;
#190 = DIMENSIONAL_EXPONENTS ( 1.000000000000000000, 0.0000000000000000000, 0.0000000000000000000, 0.0000000000000000000, 0.0000000000000000000, 0.0000000000000000000, 0.0000000000000000000 ) ;
#191 = AXIS2_PLACEMENT_3D ( 'NONE', #187, #148, #79 ) ;
#192 = UNCERTAINTY_MEASURE_WITH_UNIT (LENGTH_MEASURE( 1.000000000000000100E-005 ), #84, 'distance_accuracy_value', 'NONE');
#193 = EDGE_LOOP ( 'NONE', ( #100, #152, #215, #182 ) ) ;
#194 = LINE ( 'NONE', #25, #178 ) ;
#195 = DIRECTION ( 'NONE',  ( -0.0000000000000000000, -1.000000000000000000, -0.0000000000000000000 ) ) ;
#196 = CARTESIAN_POINT ( 'NONE',  ( 0.0000000000000000000, 0.05999999999999999800, 0.0000000000000000000 ) ) ;
#197 = CARTESIAN_POINT ( 'NONE',  ( 0.0000000000000000000, 0.0000000000000000000, -0.2500000000000000000 ) ) ;
#198 = ORIENTED_EDGE ( 'NONE', *, *, #33, .T. ) ;
#199 = DIRECTION ( 'NONE',  ( 0.0000000000000000000, 0.0000000000000000000, -1.000000000000000000 ) ) ;
#200 = AXIS2_PLACEMENT_3D ( 'NONE', #168, #186, #93 ) ;
#201 =( NAMED_UNIT ( * ) PLANE_ANGLE_UNIT ( ) SI_UNIT ( $, .RADIAN. ) );
#202 = LENGTH_MEASURE_WITH_UNIT ( LENGTH_MEASURE( 0.02539999999999999900 ), #188 );
#203 =( NAMED_UNIT ( * ) PLANE_ANGLE_UNIT ( ) SI_UNIT ( $, .RADIAN. ) );
#204 = APPLICATION_PROTOCOL_DEFINITION ( 'draft international standard', 'automotive_design', 1998, #68 ) ;
#205 = DIMENSIONAL_EXPONENTS ( 1.000000000000000000, 0.0000000000000000000, 0.0000000000000000000, 0.0000000000000000000, 0.0000000000000000000, 0.0000000000000000000, 0.0000000000000000000 ) ;
#206 = AXIS2_PLACEMENT_3D ( 'NONE', #56, #77, #119 ) ;
#207 =( GEOMETRIC_REPRESENTATION_CONTEXT ( 3 ) GLOBAL_UNCERTAINTY_ASSIGNED_CONTEXT ( ( #192 ) ) GLOBAL_UNIT_ASSIGNED_CONTEXT ( ( #84, #203, #109 ) ) REPRESENTATION_CONTEXT ( 'NONE', 'WORKASPACE' ) );
#208 = ORIENTED_EDGE ( 'NONE', *, *, #154, .T. ) ;
#209 = ORIENTED_EDGE ( 'NONE', *, *, #103, .F. ) ;
#210 = ADVANCED_FACE ( 'NONE', ( #214 ), #97, .F. ) ;
#211 = EDGE_CURVE ( 'NONE', #118, #27, #71, .T. ) ;
#212 = PRESENTATION_STYLE_ASSIGNMENT (( #12 ) ) ;
#213 = CARTESIAN_POINT ( 'NONE',  ( 0.0000000000000000000, 0.05999999999999999800, -0.3750000000000000600 ) ) ;
#214 = FACE_OUTER_BOUND ( 'NONE', #193, .T. ) ;
#215 = ORIENTED_EDGE ( 'NONE', *, *, #113, .F. ) ;
#216 = CARTESIAN_POINT ( 'NONE',  ( 0.0000000000000000000, 0.05999999999999999800, 0.0000000000000000000 ) ) ;
#217 = AXIS2_PLACEMENT_3D ( 'NONE', #165, #122, #167 ) ;
#218 = LINE ( 'NONE', #213, #130 ) ;
#219 = CARTESIAN_POINT ( 'NONE',  ( 0.0000000000000000000, 0.05999999999999999800, 0.0000000000000000000 ) ) ;
#220 = FILL_AREA_STYLE_COLOUR ( '', #2 ) ;
#221 = CIRCLE ( 'NONE', #183, 0.2500000000000000000 ) ;
#222 = ORIENTED_EDGE ( 'NONE', *, *, #113, .T. ) ;
#223 =( NAMED_UNIT ( * ) SI_UNIT ( $, .STERADIAN. ) SOLID_ANGLE_UNIT ( ) );
ENDSEC;
END-ISO-10303-21;
