ISO-10303-21;
HEADER;
FILE_DESCRIPTION (( 'STEP AP214' ),
    '1' );
FILE_NAME ('am-1306 spacer REV2.STEP',
    '2018-06-21T17:10:06',
    ( '' ),
    ( '' ),
    'SwSTEP 2.0',
    'SolidWorks 2017',
    '' );
FILE_SCHEMA (( 'AUTOMOTIVE_DESIGN' ));
ENDSEC;

DATA;
#1 = CARTESIAN_POINT ( 'NONE',  ( 0.0000000000000000000, 0.2800000000000000300, 0.0000000000000000000 ) ) ;
#2 = DIRECTION ( 'NONE',  ( -0.0000000000000000000, -1.000000000000000000, -0.0000000000000000000 ) ) ;
#3 = VERTEX_POINT ( 'NONE', #7 ) ;
#4 = LINE ( 'NONE', #69, #210 ) ;
#5 = VERTEX_POINT ( 'NONE', #81 ) ;
#6 = EDGE_CURVE ( 'NONE', #3, #51, #129, .T. ) ;
#7 = CARTESIAN_POINT ( 'NONE',  ( 2.339075386371444400E-017, 0.0000000000000000000, 0.1910000000000000000 ) ) ;
#8 = CIRCLE ( 'NONE', #134, 0.1910000000000000000 ) ;
#9 = EDGE_CURVE ( 'NONE', #43, #5, #148, .T. ) ;
#10 = ADVANCED_FACE ( 'NONE', ( #77 ), #126, .T. ) ;
#11 = ORIENTED_EDGE ( 'NONE', *, *, #211, .F. ) ;
#12 = DIRECTION ( 'NONE',  ( 0.0000000000000000000, 0.0000000000000000000, -1.000000000000000000 ) ) ;
#13 = CARTESIAN_POINT ( 'NONE',  ( 0.0000000000000000000, 0.0000000000000000000, 0.0000000000000000000 ) ) ;
#14 = DIRECTION ( 'NONE',  ( 0.0000000000000000000, 0.0000000000000000000, 1.000000000000000000 ) ) ;
#15 = EDGE_LOOP ( 'NONE', ( #140, #212 ) ) ;
#16 = DIRECTION ( 'NONE',  ( 0.0000000000000000000, 0.0000000000000000000, 1.000000000000000000 ) ) ;
#17 = AXIS2_PLACEMENT_3D ( 'NONE', #13, #33, #50 ) ;
#18 = FACE_BOUND ( 'NONE', #199, .T. ) ;
#19 = DIRECTION ( 'NONE',  ( 0.0000000000000000000, 1.000000000000000000, 0.0000000000000000000 ) ) ;
#20 = CARTESIAN_POINT ( 'NONE',  ( 0.0000000000000000000, 0.2800000000000000300, 0.0000000000000000000 ) ) ;
#21 = DIRECTION ( 'NONE',  ( -0.0000000000000000000, -1.000000000000000000, -0.0000000000000000000 ) ) ;
#22 = CIRCLE ( 'NONE', #128, 0.1910000000000000000 ) ;
#23 = AXIS2_PLACEMENT_3D ( 'NONE', #100, #19, #159 ) ;
#24 = ORIENTED_EDGE ( 'NONE', *, *, #109, .T. ) ;
#25 = ORIENTED_EDGE ( 'NONE', *, *, #6, .T. ) ;
#26 = EDGE_CURVE ( 'NONE', #51, #3, #22, .T. ) ;
#27 = ORIENTED_EDGE ( 'NONE', *, *, #178, .F. ) ;
#28 = FILL_AREA_STYLE ('',( #118 ) ) ;
#29 = MANIFOLD_SOLID_BREP ( 'Boss-Extrude1', #162 ) ;
#30 = CARTESIAN_POINT ( 'NONE',  ( 0.0000000000000000000, 0.2800000000000000300, 0.0000000000000000000 ) ) ;
#31 = ORIENTED_EDGE ( 'NONE', *, *, #26, .F. ) ;
#32 = SURFACE_SIDE_STYLE ('',( #214 ) ) ;
#33 = DIRECTION ( 'NONE',  ( 0.0000000000000000000, 0.0000000000000000000, 1.000000000000000000 ) ) ;
#34 = CARTESIAN_POINT ( 'NONE',  ( 0.0000000000000000000, 0.2800000000000000300, -0.1910000000000000000 ) ) ;
#35 = AXIS2_PLACEMENT_3D ( 'NONE', #97, #171, #220 ) ;
#36 = ORIENTED_EDGE ( 'NONE', *, *, #120, .T. ) ;
#37 = CYLINDRICAL_SURFACE ( 'NONE', #141, 0.2590000000000000100 ) ;
#38 = DIRECTION ( 'NONE',  ( 0.0000000000000000000, 0.0000000000000000000, -1.000000000000000000 ) ) ;
#39 = COLOUR_RGB ( '',0.2980392156862745100, 0.2980392156862745100, 0.2980392156862745100 ) ;
#40 = DIRECTION ( 'NONE',  ( 0.0000000000000000000, 1.000000000000000000, 0.0000000000000000000 ) ) ;
#41 = UNCERTAINTY_MEASURE_WITH_UNIT (LENGTH_MEASURE( 1.000000000000000100E-005 ), #205, 'distance_accuracy_value', 'NONE');
#42 = EDGE_CURVE ( 'NONE', #127, #51, #184, .T. ) ;
#43 = VERTEX_POINT ( 'NONE', #80 ) ;
#44 = PRODUCT_DEFINITION ( 'UNKNOWN', '', #54, #174 ) ;
#45 = CIRCLE ( 'NONE', #181, 0.1910000000000000000 ) ;
#46 =( LENGTH_UNIT ( ) NAMED_UNIT ( * ) SI_UNIT ( $, .METRE. ) );
#47 =( LENGTH_UNIT ( ) NAMED_UNIT ( * ) SI_UNIT ( $, .METRE. ) );
#48 =( NAMED_UNIT ( * ) PLANE_ANGLE_UNIT ( ) SI_UNIT ( $, .RADIAN. ) );
#49 = EDGE_CURVE ( 'NONE', #5, #43, #167, .T. ) ;
#50 = DIRECTION ( 'NONE',  ( 1.000000000000000000, 0.0000000000000000000, 0.0000000000000000000 ) ) ;
#51 = VERTEX_POINT ( 'NONE', #96 ) ;
#52 = PRESENTATION_STYLE_ASSIGNMENT (( #201 ) ) ;
#53 = DIRECTION ( 'NONE',  ( -0.0000000000000000000, -1.000000000000000000, -0.0000000000000000000 ) ) ;
#54 = PRODUCT_DEFINITION_FORMATION_WITH_SPECIFIED_SOURCE ( 'ANY', '', #219, .NOT_KNOWN. ) ;
#55 = CARTESIAN_POINT ( 'NONE',  ( 0.0000000000000000000, 0.2800000000000000300, 0.0000000000000000000 ) ) ;
#56 = ORIENTED_EDGE ( 'NONE', *, *, #215, .F. ) ;
#57 =( GEOMETRIC_REPRESENTATION_CONTEXT ( 3 ) GLOBAL_UNCERTAINTY_ASSIGNED_CONTEXT ( ( #41 ) ) GLOBAL_UNIT_ASSIGNED_CONTEXT ( ( #205, #61, #99 ) ) REPRESENTATION_CONTEXT ( 'NONE', 'WORKASPACE' ) );
#58 = ORIENTED_EDGE ( 'NONE', *, *, #49, .F. ) ;
#59 = FACE_OUTER_BOUND ( 'NONE', #83, .T. ) ;
#60 = PRODUCT_RELATED_PRODUCT_CATEGORY ( 'part', '', ( #219 ) ) ;
#61 =( NAMED_UNIT ( * ) PLANE_ANGLE_UNIT ( ) SI_UNIT ( $, .RADIAN. ) );
#62 = ADVANCED_FACE ( 'NONE', ( #121 ), #88, .F. ) ;
#63 = APPLICATION_PROTOCOL_DEFINITION ( 'draft international standard', 'automotive_design', 1998, #204 ) ;
#64 = DIRECTION ( 'NONE',  ( 0.0000000000000000000, 0.0000000000000000000, 1.000000000000000000 ) ) ;
#65 = ORIENTED_EDGE ( 'NONE', *, *, #178, .T. ) ;
#66 = CARTESIAN_POINT ( 'NONE',  ( 0.0000000000000000000, 0.2800000000000000300, 0.0000000000000000000 ) ) ;
#67 = FACE_OUTER_BOUND ( 'NONE', #15, .T. ) ;
#68 = DIRECTION ( 'NONE',  ( 0.0000000000000000000, 0.0000000000000000000, 1.000000000000000000 ) ) ;
#69 = CARTESIAN_POINT ( 'NONE',  ( 2.339075386371444400E-017, 0.2800000000000000300, 0.1910000000000000000 ) ) ;
#70 = ORIENTED_EDGE ( 'NONE', *, *, #42, .F. ) ;
#71 = VERTEX_POINT ( 'NONE', #87 ) ;
#72 = ADVANCED_BREP_SHAPE_REPRESENTATION ( 'am-1306 spacer REV2', ( #29, #17 ), #187 ) ;
#73 = FACE_BOUND ( 'NONE', #207, .T. ) ;
#74 = AXIS2_PLACEMENT_3D ( 'NONE', #194, #2, #144 ) ;
#75 = EDGE_LOOP ( 'NONE', ( #56, #221 ) ) ;
#76 = DIMENSIONAL_EXPONENTS ( 1.000000000000000000, 0.0000000000000000000, 0.0000000000000000000, 0.0000000000000000000, 0.0000000000000000000, 0.0000000000000000000, 0.0000000000000000000 ) ;
#77 = FACE_OUTER_BOUND ( 'NONE', #164, .T. ) ;
#78 = DIRECTION ( 'NONE',  ( 0.0000000000000000000, 0.0000000000000000000, 1.000000000000000000 ) ) ;
#79 = SURFACE_STYLE_FILL_AREA ( #28 ) ;
#80 = CARTESIAN_POINT ( 'NONE',  ( 0.0000000000000000000, 0.2800000000000000300, -0.2590000000000000100 ) ) ;
#81 = CARTESIAN_POINT ( 'NONE',  ( 3.171835209791645200E-017, 0.2800000000000000300, 0.2590000000000000100 ) ) ;
#82 = APPLICATION_CONTEXT ( 'automotive_design' ) ;
#83 = EDGE_LOOP ( 'NONE', ( #24, #65, #31, #70 ) ) ;
#84 = CARTESIAN_POINT ( 'NONE',  ( 0.0000000000000000000, 0.2800000000000000300, -0.1910000000000000000 ) ) ;
#85 = UNCERTAINTY_MEASURE_WITH_UNIT (LENGTH_MEASURE( 1.000000000000000100E-005 ), #117, 'distance_accuracy_value', 'NONE');
#86 = PLANE ( 'NONE',  #90 ) ;
#87 = CARTESIAN_POINT ( 'NONE',  ( 2.339075386371444400E-017, 0.2800000000000000300, 0.1910000000000000000 ) ) ;
#88 = CYLINDRICAL_SURFACE ( 'NONE', #191, 0.1910000000000000000 ) ;
#89 = ORIENTED_EDGE ( 'NONE', *, *, #120, .F. ) ;
#90 = AXIS2_PLACEMENT_3D ( 'NONE', #156, #176, #208 ) ;
#91 = ORIENTED_EDGE ( 'NONE', *, *, #6, .F. ) ;
#92 = LENGTH_MEASURE_WITH_UNIT ( LENGTH_MEASURE( 0.02539999999999999900 ), #47 );
#93 = ADVANCED_FACE ( 'NONE', ( #67, #73 ), #102, .T. ) ;
#94 = ADVANCED_FACE ( 'NONE', ( #136 ), #37, .T. ) ;
#95 = EDGE_CURVE ( 'NONE', #113, #185, #200, .T. ) ;
#96 = CARTESIAN_POINT ( 'NONE',  ( 0.0000000000000000000, 0.0000000000000000000, -0.1910000000000000000 ) ) ;
#97 = CARTESIAN_POINT ( 'NONE',  ( 0.0000000000000000000, 0.0000000000000000000, 0.0000000000000000000 ) ) ;
#98 = SURFACE_SIDE_STYLE ('',( #79 ) ) ;
#99 =( NAMED_UNIT ( * ) SI_UNIT ( $, .STERADIAN. ) SOLID_ANGLE_UNIT ( ) );
#100 = CARTESIAN_POINT ( 'NONE',  ( 0.0000000000000000000, 0.2800000000000000300, 0.0000000000000000000 ) ) ;
#101 = DIRECTION ( 'NONE',  ( 0.0000000000000000000, 0.0000000000000000000, -1.000000000000000000 ) ) ;
#102 = PLANE ( 'NONE',  #23 ) ;
#103 = CIRCLE ( 'NONE', #35, 0.2590000000000000100 ) ;
#104 = CARTESIAN_POINT ( 'NONE',  ( 0.0000000000000000000, 0.2800000000000000300, 0.0000000000000000000 ) ) ;
#105 =( LENGTH_UNIT ( ) NAMED_UNIT ( * ) SI_UNIT ( $, .METRE. ) );
#106 = CARTESIAN_POINT ( 'NONE',  ( 0.0000000000000000000, 0.2800000000000000300, -0.2590000000000000100 ) ) ;
#107 = EDGE_CURVE ( 'NONE', #71, #127, #8, .T. ) ;
#108 = ORIENTED_EDGE ( 'NONE', *, *, #42, .T. ) ;
#109 = EDGE_CURVE ( 'NONE', #127, #71, #45, .T. ) ;
#110 = PRESENTATION_STYLE_ASSIGNMENT (( #139 ) ) ;
#111 = PRODUCT_DEFINITION_SHAPE ( 'NONE', 'NONE',  #44 ) ;
#112 = STYLED_ITEM ( 'NONE', ( #52 ), #72 ) ;
#113 = VERTEX_POINT ( 'NONE', #180 ) ;
#114 =( GEOMETRIC_REPRESENTATION_CONTEXT ( 3 ) GLOBAL_UNCERTAINTY_ASSIGNED_CONTEXT ( ( #85 ) ) GLOBAL_UNIT_ASSIGNED_CONTEXT ( ( #117, #48, #152 ) ) REPRESENTATION_CONTEXT ( 'NONE', 'WORKASPACE' ) );
#115 = VECTOR ( 'NONE', #193, 39.37007874015748100 ) ;
#116 = ADVANCED_FACE ( 'NONE', ( #59 ), #218, .F. ) ;
#117 =( CONVERSION_BASED_UNIT ( 'INCH', #142 ) LENGTH_UNIT ( ) NAMED_UNIT ( #133 ) );
#118 = FILL_AREA_STYLE_COLOUR ( '', #188 ) ;
#119 = ORIENTED_EDGE ( 'NONE', *, *, #26, .T. ) ;
#120 = EDGE_CURVE ( 'NONE', #43, #185, #158, .T. ) ;
#121 = FACE_OUTER_BOUND ( 'NONE', #203, .T. ) ;
#122 = DIRECTION ( 'NONE',  ( 0.0000000000000000000, 1.000000000000000000, 0.0000000000000000000 ) ) ;
#123 = DIRECTION ( 'NONE',  ( 0.0000000000000000000, 0.0000000000000000000, 1.000000000000000000 ) ) ;
#124 = AXIS2_PLACEMENT_3D ( 'NONE', #30, #135, #12 ) ;
#125 = CARTESIAN_POINT ( 'NONE',  ( 0.0000000000000000000, 0.0000000000000000000, -0.2590000000000000100 ) ) ;
#126 = CYLINDRICAL_SURFACE ( 'NONE', #124, 0.2590000000000000100 ) ;
#127 = VERTEX_POINT ( 'NONE', #84 ) ;
#128 = AXIS2_PLACEMENT_3D ( 'NONE', #137, #122, #14 ) ;
#129 = CIRCLE ( 'NONE', #160, 0.1910000000000000000 ) ;
#130 = PRESENTATION_LAYER_ASSIGNMENT (  '', '', ( #183 ) ) ;
#131 = ORIENTED_EDGE ( 'NONE', *, *, #95, .T. ) ;
#132 = DIRECTION ( 'NONE',  ( 0.0000000000000000000, 1.000000000000000000, 0.0000000000000000000 ) ) ;
#133 = DIMENSIONAL_EXPONENTS ( 1.000000000000000000, 0.0000000000000000000, 0.0000000000000000000, 0.0000000000000000000, 0.0000000000000000000, 0.0000000000000000000, 0.0000000000000000000 ) ;
#134 = AXIS2_PLACEMENT_3D ( 'NONE', #20, #40, #64 ) ;
#135 = DIRECTION ( 'NONE',  ( -0.0000000000000000000, -1.000000000000000000, -0.0000000000000000000 ) ) ;
#136 = FACE_OUTER_BOUND ( 'NONE', #190, .T. ) ;
#137 = CARTESIAN_POINT ( 'NONE',  ( 0.0000000000000000000, 0.0000000000000000000, 0.0000000000000000000 ) ) ;
#138 =( NAMED_UNIT ( * ) SI_UNIT ( $, .STERADIAN. ) SOLID_ANGLE_UNIT ( ) );
#139 = SURFACE_STYLE_USAGE ( .BOTH. , #32 ) ;
#140 = ORIENTED_EDGE ( 'NONE', *, *, #9, .T. ) ;
#141 = AXIS2_PLACEMENT_3D ( 'NONE', #55, #192, #101 ) ;
#142 = LENGTH_MEASURE_WITH_UNIT ( LENGTH_MEASURE( 0.02539999999999999900 ), #105 );
#143 = CARTESIAN_POINT ( 'NONE',  ( 0.0000000000000000000, 0.0000000000000000000, 0.0000000000000000000 ) ) ;
#144 = DIRECTION ( 'NONE',  ( 0.0000000000000000000, 0.0000000000000000000, -1.000000000000000000 ) ) ;
#145 = UNCERTAINTY_MEASURE_WITH_UNIT (LENGTH_MEASURE( 1.000000000000000100E-005 ), #217, 'distance_accuracy_value', 'NONE');
#146 = AXIS2_PLACEMENT_3D ( 'NONE', #143, #209, #68 ) ;
#147 = ORIENTED_EDGE ( 'NONE', *, *, #107, .T. ) ;
#148 = CIRCLE ( 'NONE', #198, 0.2590000000000000100 ) ;
#149 = PRESENTATION_LAYER_ASSIGNMENT (  '', '', ( #112 ) ) ;
#150 = ORIENTED_EDGE ( 'NONE', *, *, #215, .T. ) ;
#151 = VECTOR ( 'NONE', #154, 39.37007874015748100 ) ;
#152 =( NAMED_UNIT ( * ) SI_UNIT ( $, .STERADIAN. ) SOLID_ANGLE_UNIT ( ) );
#153 = MECHANICAL_DESIGN_GEOMETRIC_PRESENTATION_REPRESENTATION (  '', ( #183 ), #57 ) ;
#154 = DIRECTION ( 'NONE',  ( -0.0000000000000000000, -1.000000000000000000, -0.0000000000000000000 ) ) ;
#155 = DIRECTION ( 'NONE',  ( 0.0000000000000000000, 1.000000000000000000, 0.0000000000000000000 ) ) ;
#156 = CARTESIAN_POINT ( 'NONE',  ( 0.0000000000000000000, 0.0000000000000000000, 0.0000000000000000000 ) ) ;
#157 = ORIENTED_EDGE ( 'NONE', *, *, #9, .F. ) ;
#158 = LINE ( 'NONE', #106, #163 ) ;
#159 = DIRECTION ( 'NONE',  ( 0.0000000000000000000, -0.0000000000000000000, 1.000000000000000000 ) ) ;
#160 = AXIS2_PLACEMENT_3D ( 'NONE', #202, #132, #172 ) ;
#161 = ORIENTED_EDGE ( 'NONE', *, *, #107, .F. ) ;
#162 = CLOSED_SHELL ( 'NONE', ( #116, #10, #93, #186, #94, #62 ) ) ;
#163 = VECTOR ( 'NONE', #21, 39.37007874015748100 ) ;
#164 = EDGE_LOOP ( 'NONE', ( #58, #182, #131, #89 ) ) ;
#165 = LINE ( 'NONE', #177, #115 ) ;
#166 = DIMENSIONAL_EXPONENTS ( 1.000000000000000000, 0.0000000000000000000, 0.0000000000000000000, 0.0000000000000000000, 0.0000000000000000000, 0.0000000000000000000, 0.0000000000000000000 ) ;
#167 = CIRCLE ( 'NONE', #195, 0.2590000000000000100 ) ;
#168 = FILL_AREA_STYLE ('',( #206 ) ) ;
#169 = APPLICATION_PROTOCOL_DEFINITION ( 'draft international standard', 'automotive_design', 1998, #82 ) ;
#170 = PRODUCT_CONTEXT ( 'NONE', #82, 'mechanical' ) ;
#171 = DIRECTION ( 'NONE',  ( 0.0000000000000000000, 1.000000000000000000, 0.0000000000000000000 ) ) ;
#172 = DIRECTION ( 'NONE',  ( 0.0000000000000000000, 0.0000000000000000000, 1.000000000000000000 ) ) ;
#173 = ORIENTED_EDGE ( 'NONE', *, *, #109, .F. ) ;
#174 = PRODUCT_DEFINITION_CONTEXT ( 'detailed design', #204, 'design' ) ;
#175 = MECHANICAL_DESIGN_GEOMETRIC_PRESENTATION_REPRESENTATION (  '', ( #112 ), #114 ) ;
#176 = DIRECTION ( 'NONE',  ( 0.0000000000000000000, 1.000000000000000000, 0.0000000000000000000 ) ) ;
#177 = CARTESIAN_POINT ( 'NONE',  ( 3.171835209791645200E-017, 0.2800000000000000300, 0.2590000000000000100 ) ) ;
#178 = EDGE_CURVE ( 'NONE', #71, #3, #4, .T. ) ;
#179 = DIRECTION ( 'NONE',  ( -0.0000000000000000000, -1.000000000000000000, -0.0000000000000000000 ) ) ;
#180 = CARTESIAN_POINT ( 'NONE',  ( 3.171835209791645200E-017, 0.0000000000000000000, 0.2590000000000000100 ) ) ;
#181 = AXIS2_PLACEMENT_3D ( 'NONE', #104, #213, #16 ) ;
#182 = ORIENTED_EDGE ( 'NONE', *, *, #211, .T. ) ;
#183 = STYLED_ITEM ( 'NONE', ( #110 ), #29 ) ;
#184 = LINE ( 'NONE', #34, #151 ) ;
#185 = VERTEX_POINT ( 'NONE', #125 ) ;
#186 = ADVANCED_FACE ( 'NONE', ( #197, #18 ), #86, .F. ) ;
#187 =( GEOMETRIC_REPRESENTATION_CONTEXT ( 3 ) GLOBAL_UNCERTAINTY_ASSIGNED_CONTEXT ( ( #145 ) ) GLOBAL_UNIT_ASSIGNED_CONTEXT ( ( #217, #189, #138 ) ) REPRESENTATION_CONTEXT ( 'NONE', 'WORKASPACE' ) );
#188 = COLOUR_RGB ( '',0.2980392156862745100, 0.2980392156862745100, 0.2980392156862745100 ) ;
#189 =( NAMED_UNIT ( * ) PLANE_ANGLE_UNIT ( ) SI_UNIT ( $, .RADIAN. ) );
#190 = EDGE_LOOP ( 'NONE', ( #11, #157, #36, #150 ) ) ;
#191 = AXIS2_PLACEMENT_3D ( 'NONE', #66, #179, #38 ) ;
#192 = DIRECTION ( 'NONE',  ( -0.0000000000000000000, -1.000000000000000000, -0.0000000000000000000 ) ) ;
#193 = DIRECTION ( 'NONE',  ( -0.0000000000000000000, -1.000000000000000000, -0.0000000000000000000 ) ) ;
#194 = CARTESIAN_POINT ( 'NONE',  ( 0.0000000000000000000, 0.2800000000000000300, 0.0000000000000000000 ) ) ;
#195 = AXIS2_PLACEMENT_3D ( 'NONE', #1, #223, #123 ) ;
#196 = LENGTH_MEASURE_WITH_UNIT ( LENGTH_MEASURE( 0.02539999999999999900 ), #46 );
#197 = FACE_OUTER_BOUND ( 'NONE', #75, .T. ) ;
#198 = AXIS2_PLACEMENT_3D ( 'NONE', #216, #155, #78 ) ;
#199 = EDGE_LOOP ( 'NONE', ( #119, #25 ) ) ;
#200 = CIRCLE ( 'NONE', #146, 0.2590000000000000100 ) ;
#201 = SURFACE_STYLE_USAGE ( .BOTH. , #98 ) ;
#202 = CARTESIAN_POINT ( 'NONE',  ( 0.0000000000000000000, 0.0000000000000000000, 0.0000000000000000000 ) ) ;
#203 = EDGE_LOOP ( 'NONE', ( #27, #147, #108, #91 ) ) ;
#204 = APPLICATION_CONTEXT ( 'automotive_design' ) ;
#205 =( CONVERSION_BASED_UNIT ( 'INCH', #196 ) LENGTH_UNIT ( ) NAMED_UNIT ( #76 ) );
#206 = FILL_AREA_STYLE_COLOUR ( '', #39 ) ;
#207 = EDGE_LOOP ( 'NONE', ( #173, #161 ) ) ;
#208 = DIRECTION ( 'NONE',  ( 0.0000000000000000000, -0.0000000000000000000, 1.000000000000000000 ) ) ;
#209 = DIRECTION ( 'NONE',  ( 0.0000000000000000000, 1.000000000000000000, 0.0000000000000000000 ) ) ;
#210 = VECTOR ( 'NONE', #53, 39.37007874015748100 ) ;
#211 = EDGE_CURVE ( 'NONE', #5, #113, #165, .T. ) ;
#212 = ORIENTED_EDGE ( 'NONE', *, *, #49, .T. ) ;
#213 = DIRECTION ( 'NONE',  ( 0.0000000000000000000, 1.000000000000000000, 0.0000000000000000000 ) ) ;
#214 = SURFACE_STYLE_FILL_AREA ( #168 ) ;
#215 = EDGE_CURVE ( 'NONE', #185, #113, #103, .T. ) ;
#216 = CARTESIAN_POINT ( 'NONE',  ( 0.0000000000000000000, 0.2800000000000000300, 0.0000000000000000000 ) ) ;
#217 =( CONVERSION_BASED_UNIT ( 'INCH', #92 ) LENGTH_UNIT ( ) NAMED_UNIT ( #166 ) );
#218 = CYLINDRICAL_SURFACE ( 'NONE', #74, 0.1910000000000000000 ) ;
#219 = PRODUCT ( 'am-1306 spacer REV2', 'am-1306 spacer REV2', '', ( #170 ) ) ;
#220 = DIRECTION ( 'NONE',  ( 0.0000000000000000000, 0.0000000000000000000, 1.000000000000000000 ) ) ;
#221 = ORIENTED_EDGE ( 'NONE', *, *, #95, .F. ) ;
#222 = SHAPE_DEFINITION_REPRESENTATION ( #111, #72 ) ;
#223 = DIRECTION ( 'NONE',  ( 0.0000000000000000000, 1.000000000000000000, 0.0000000000000000000 ) ) ;
ENDSEC;
END-ISO-10303-21;
