ISO-10303-21;
HEADER;
FILE_DESCRIPTION (( 'STEP AP214' ),
    '1' );
FILE_NAME ('am-1307 850 long 380 id REV2.STEP',
    '2018-06-21T17:00:37',
    ( '' ),
    ( '' ),
    'SwSTEP 2.0',
    'SolidWorks 2017',
    '' );
FILE_SCHEMA (( 'AUTOMOTIVE_DESIGN' ));
ENDSEC;

DATA;
#1 = DIRECTION ( 'NONE',  ( 0.0000000000000000000, 1.000000000000000000, 0.0000000000000000000 ) ) ;
#2 = AXIS2_PLACEMENT_3D ( 'NONE', #196, #108, #122 ) ;
#3 = LINE ( 'NONE', #13, #27 ) ;
#4 = ORIENTED_EDGE ( 'NONE', *, *, #83, .T. ) ;
#5 = ADVANCED_FACE ( 'NONE', ( #153 ), #219, .F. ) ;
#6 = DIRECTION ( 'NONE',  ( -0.0000000000000000000, -1.000000000000000000, -0.0000000000000000000 ) ) ;
#7 = VERTEX_POINT ( 'NONE', #72 ) ;
#8 = CARTESIAN_POINT ( 'NONE',  ( 0.0000000000000000000, 0.8499999999999999800, -0.3750000000000000600 ) ) ;
#9 = CARTESIAN_POINT ( 'NONE',  ( 0.0000000000000000000, 0.0000000000000000000, 0.0000000000000000000 ) ) ;
#10 = UNCERTAINTY_MEASURE_WITH_UNIT (LENGTH_MEASURE( 1.000000000000000100E-005 ), #59, 'distance_accuracy_value', 'NONE');
#11 = CARTESIAN_POINT ( 'NONE',  ( 0.0000000000000000000, 0.8499999999999999800, -0.1899999999999999700 ) ) ;
#12 = ORIENTED_EDGE ( 'NONE', *, *, #206, .T. ) ;
#13 = CARTESIAN_POINT ( 'NONE',  ( 4.592425496802575500E-017, 0.8499999999999999800, 0.3750000000000000600 ) ) ;
#14 = EDGE_CURVE ( 'NONE', #64, #85, #70, .T. ) ;
#15 = ORIENTED_EDGE ( 'NONE', *, *, #147, .F. ) ;
#16 = DIMENSIONAL_EXPONENTS ( 1.000000000000000000, 0.0000000000000000000, 0.0000000000000000000, 0.0000000000000000000, 0.0000000000000000000, 0.0000000000000000000, 0.0000000000000000000 ) ;
#17 = ORIENTED_EDGE ( 'NONE', *, *, #147, .T. ) ;
#18 = AXIS2_PLACEMENT_3D ( 'NONE', #35, #159, #199 ) ;
#19 = CIRCLE ( 'NONE', #32, 0.1899999999999999700 ) ;
#20 = DIRECTION ( 'NONE',  ( -0.0000000000000000000, -1.000000000000000000, -0.0000000000000000000 ) ) ;
#21 = PRODUCT_DEFINITION_SHAPE ( 'NONE', 'NONE',  #182 ) ;
#22 = AXIS2_PLACEMENT_3D ( 'NONE', #9, #78, #162 ) ;
#23 = ORIENTED_EDGE ( 'NONE', *, *, #33, .F. ) ;
#24 = FILL_AREA_STYLE ('',( #57 ) ) ;
#25 = DIRECTION ( 'NONE',  ( 0.0000000000000000000, 0.0000000000000000000, 1.000000000000000000 ) ) ;
#26 =( NAMED_UNIT ( * ) SI_UNIT ( $, .STERADIAN. ) SOLID_ANGLE_UNIT ( ) );
#27 = VECTOR ( 'NONE', #38, 39.37007874015748100 ) ;
#28 = ORIENTED_EDGE ( 'NONE', *, *, #82, .T. ) ;
#29 = APPLICATION_CONTEXT ( 'automotive_design' ) ;
#30 =( LENGTH_UNIT ( ) NAMED_UNIT ( * ) SI_UNIT ( $, .METRE. ) );
#31 = STYLED_ITEM ( 'NONE', ( #129 ), #185 ) ;
#32 = AXIS2_PLACEMENT_3D ( 'NONE', #195, #160, #36 ) ;
#33 = EDGE_CURVE ( 'NONE', #107, #142, #190, .T. ) ;
#34 = CARTESIAN_POINT ( 'NONE',  ( 0.0000000000000000000, 0.0000000000000000000, 0.0000000000000000000 ) ) ;
#35 = CARTESIAN_POINT ( 'NONE',  ( 0.0000000000000000000, 0.0000000000000000000, 0.0000000000000000000 ) ) ;
#36 = DIRECTION ( 'NONE',  ( 0.0000000000000000000, 0.0000000000000000000, 1.000000000000000000 ) ) ;
#37 = EDGE_LOOP ( 'NONE', ( #214, #221 ) ) ;
#38 = DIRECTION ( 'NONE',  ( -0.0000000000000000000, -1.000000000000000000, -0.0000000000000000000 ) ) ;
#39 =( LENGTH_UNIT ( ) NAMED_UNIT ( * ) SI_UNIT ( $, .METRE. ) );
#40 = DIRECTION ( 'NONE',  ( 0.0000000000000000000, 1.000000000000000000, 0.0000000000000000000 ) ) ;
#41 = VECTOR ( 'NONE', #201, 39.37007874015748100 ) ;
#42 = CARTESIAN_POINT ( 'NONE',  ( 0.0000000000000000000, 0.0000000000000000000, 0.0000000000000000000 ) ) ;
#43 = AXIS2_PLACEMENT_3D ( 'NONE', #186, #188, #45 ) ;
#44 = ORIENTED_EDGE ( 'NONE', *, *, #33, .T. ) ;
#45 = DIRECTION ( 'NONE',  ( 0.0000000000000000000, 0.0000000000000000000, 1.000000000000000000 ) ) ;
#46 = AXIS2_PLACEMENT_3D ( 'NONE', #34, #1, #54 ) ;
#47 =( GEOMETRIC_REPRESENTATION_CONTEXT ( 3 ) GLOBAL_UNCERTAINTY_ASSIGNED_CONTEXT ( ( #138 ) ) GLOBAL_UNIT_ASSIGNED_CONTEXT ( ( #166, #113, #95 ) ) REPRESENTATION_CONTEXT ( 'NONE', 'WORKASPACE' ) );
#48 = ADVANCED_FACE ( 'NONE', ( #217 ), #204, .T. ) ;
#49 = SURFACE_STYLE_FILL_AREA ( #24 ) ;
#50 = CARTESIAN_POINT ( 'NONE',  ( 0.0000000000000000000, 0.8499999999999999800, 0.0000000000000000000 ) ) ;
#51 = EDGE_LOOP ( 'NONE', ( #23, #139, #98, #187 ) ) ;
#52 = DIRECTION ( 'NONE',  ( 0.0000000000000000000, 0.0000000000000000000, -1.000000000000000000 ) ) ;
#53 = ADVANCED_FACE ( 'NONE', ( #184 ), #68, .F. ) ;
#54 = DIRECTION ( 'NONE',  ( 0.0000000000000000000, 0.0000000000000000000, 1.000000000000000000 ) ) ;
#55 = CARTESIAN_POINT ( 'NONE',  ( 4.592425496802575500E-017, 0.0000000000000000000, 0.3750000000000000600 ) ) ;
#56 =( GEOMETRIC_REPRESENTATION_CONTEXT ( 3 ) GLOBAL_UNCERTAINTY_ASSIGNED_CONTEXT ( ( #218 ) ) GLOBAL_UNIT_ASSIGNED_CONTEXT ( ( #62, #168, #66 ) ) REPRESENTATION_CONTEXT ( 'NONE', 'WORKASPACE' ) );
#57 = FILL_AREA_STYLE_COLOUR ( '', #210 ) ;
#58 = LENGTH_MEASURE_WITH_UNIT ( LENGTH_MEASURE( 0.02539999999999999900 ), #30 );
#59 =( CONVERSION_BASED_UNIT ( 'INCH', #114 ) LENGTH_UNIT ( ) NAMED_UNIT ( #171 ) );
#60 = EDGE_LOOP ( 'NONE', ( #28, #90, #15, #200 ) ) ;
#61 = CARTESIAN_POINT ( 'NONE',  ( 0.0000000000000000000, 0.8499999999999999800, 0.0000000000000000000 ) ) ;
#62 =( CONVERSION_BASED_UNIT ( 'INCH', #58 ) LENGTH_UNIT ( ) NAMED_UNIT ( #69 ) );
#63 = DIRECTION ( 'NONE',  ( 1.000000000000000000, 0.0000000000000000000, 0.0000000000000000000 ) ) ;
#64 = VERTEX_POINT ( 'NONE', #211 ) ;
#65 = APPLICATION_PROTOCOL_DEFINITION ( 'draft international standard', 'automotive_design', 1998, #29 ) ;
#66 =( NAMED_UNIT ( * ) SI_UNIT ( $, .STERADIAN. ) SOLID_ANGLE_UNIT ( ) );
#67 = AXIS2_PLACEMENT_3D ( 'NONE', #42, #167, #63 ) ;
#68 = CYLINDRICAL_SURFACE ( 'NONE', #135, 0.1899999999999999700 ) ;
#69 = DIMENSIONAL_EXPONENTS ( 1.000000000000000000, 0.0000000000000000000, 0.0000000000000000000, 0.0000000000000000000, 0.0000000000000000000, 0.0000000000000000000, 0.0000000000000000000 ) ;
#70 = LINE ( 'NONE', #197, #80 ) ;
#71 = FACE_BOUND ( 'NONE', #37, .T. ) ;
#72 = CARTESIAN_POINT ( 'NONE',  ( 0.0000000000000000000, 0.0000000000000000000, -0.3750000000000000600 ) ) ;
#73 = ORIENTED_EDGE ( 'NONE', *, *, #118, .T. ) ;
#74 = CARTESIAN_POINT ( 'NONE',  ( 2.326828918379970900E-017, 0.0000000000000000000, 0.1899999999999999700 ) ) ;
#75 = SURFACE_STYLE_USAGE ( .BOTH. , #109 ) ;
#76 = EDGE_CURVE ( 'NONE', #7, #191, #148, .T. ) ;
#77 = CARTESIAN_POINT ( 'NONE',  ( 0.0000000000000000000, 0.0000000000000000000, -0.1899999999999999700 ) ) ;
#78 = DIRECTION ( 'NONE',  ( 0.0000000000000000000, 1.000000000000000000, 0.0000000000000000000 ) ) ;
#79 = PRODUCT_CONTEXT ( 'NONE', #203, 'mechanical' ) ;
#80 = VECTOR ( 'NONE', #6, 39.37007874015748100 ) ;
#81 = EDGE_LOOP ( 'NONE', ( #149, #44 ) ) ;
#82 = EDGE_CURVE ( 'NONE', #156, #64, #19, .T. ) ;
#83 = EDGE_CURVE ( 'NONE', #85, #96, #175, .T. ) ;
#84 = CIRCLE ( 'NONE', #18, 0.1899999999999999700 ) ;
#85 = VERTEX_POINT ( 'NONE', #74 ) ;
#86 = EDGE_LOOP ( 'NONE', ( #178, #198 ) ) ;
#87 = DIRECTION ( 'NONE',  ( -0.0000000000000000000, -1.000000000000000000, -0.0000000000000000000 ) ) ;
#88 = CARTESIAN_POINT ( 'NONE',  ( 0.0000000000000000000, 0.8499999999999999800, 0.0000000000000000000 ) ) ;
#89 = LINE ( 'NONE', #11, #41 ) ;
#90 = ORIENTED_EDGE ( 'NONE', *, *, #14, .T. ) ;
#91 = EDGE_CURVE ( 'NONE', #142, #107, #106, .T. ) ;
#92 = PLANE ( 'NONE',  #22 ) ;
#93 = DIRECTION ( 'NONE',  ( 0.0000000000000000000, 1.000000000000000000, 0.0000000000000000000 ) ) ;
#94 = DIRECTION ( 'NONE',  ( 0.0000000000000000000, -0.0000000000000000000, 1.000000000000000000 ) ) ;
#95 =( NAMED_UNIT ( * ) SI_UNIT ( $, .STERADIAN. ) SOLID_ANGLE_UNIT ( ) );
#96 = VERTEX_POINT ( 'NONE', #77 ) ;
#97 = ADVANCED_FACE ( 'NONE', ( #155 ), #173, .T. ) ;
#98 = ORIENTED_EDGE ( 'NONE', *, *, #222, .T. ) ;
#99 = ORIENTED_EDGE ( 'NONE', *, *, #104, .T. ) ;
#100 = EDGE_CURVE ( 'NONE', #107, #191, #3, .T. ) ;
#101 = FACE_OUTER_BOUND ( 'NONE', #81, .T. ) ;
#102 = CARTESIAN_POINT ( 'NONE',  ( 0.0000000000000000000, 0.8499999999999999800, 0.0000000000000000000 ) ) ;
#103 = ORIENTED_EDGE ( 'NONE', *, *, #91, .F. ) ;
#104 = EDGE_CURVE ( 'NONE', #64, #156, #141, .T. ) ;
#105 = DIRECTION ( 'NONE',  ( 0.0000000000000000000, 0.0000000000000000000, -1.000000000000000000 ) ) ;
#106 = CIRCLE ( 'NONE', #154, 0.3750000000000000600 ) ;
#107 = VERTEX_POINT ( 'NONE', #161 ) ;
#108 = DIRECTION ( 'NONE',  ( -0.0000000000000000000, -1.000000000000000000, -0.0000000000000000000 ) ) ;
#109 = SURFACE_SIDE_STYLE ('',( #49 ) ) ;
#110 = CARTESIAN_POINT ( 'NONE',  ( 0.0000000000000000000, 0.8499999999999999800, 0.0000000000000000000 ) ) ;
#111 = DIRECTION ( 'NONE',  ( 0.0000000000000000000, 0.0000000000000000000, 1.000000000000000000 ) ) ;
#112 = AXIS2_PLACEMENT_3D ( 'NONE', #146, #216, #111 ) ;
#113 =( NAMED_UNIT ( * ) PLANE_ANGLE_UNIT ( ) SI_UNIT ( $, .RADIAN. ) );
#114 = LENGTH_MEASURE_WITH_UNIT ( LENGTH_MEASURE( 0.02539999999999999900 ), #39 );
#115 = EDGE_LOOP ( 'NONE', ( #17, #4 ) ) ;
#116 = PRODUCT_DEFINITION_FORMATION_WITH_SPECIFIED_SOURCE ( 'ANY', '', #189, .NOT_KNOWN. ) ;
#117 = APPLICATION_PROTOCOL_DEFINITION ( 'draft international standard', 'automotive_design', 1998, #203 ) ;
#118 = EDGE_CURVE ( 'NONE', #142, #7, #123, .T. ) ;
#119 = AXIS2_PLACEMENT_3D ( 'NONE', #143, #87, #105 ) ;
#120 = ADVANCED_FACE ( 'NONE', ( #164, #152 ), #92, .F. ) ;
#121 = SURFACE_STYLE_FILL_AREA ( #220 ) ;
#122 = DIRECTION ( 'NONE',  ( 0.0000000000000000000, 0.0000000000000000000, -1.000000000000000000 ) ) ;
#123 = LINE ( 'NONE', #8, #133 ) ;
#124 = DIRECTION ( 'NONE',  ( -0.0000000000000000000, -1.000000000000000000, -0.0000000000000000000 ) ) ;
#125 = DIRECTION ( 'NONE',  ( 0.0000000000000000000, 0.0000000000000000000, 1.000000000000000000 ) ) ;
#126 = ADVANCED_FACE ( 'NONE', ( #101, #71 ), #183, .T. ) ;
#127 =( NAMED_UNIT ( * ) PLANE_ANGLE_UNIT ( ) SI_UNIT ( $, .RADIAN. ) );
#128 = MECHANICAL_DESIGN_GEOMETRIC_PRESENTATION_REPRESENTATION (  '', ( #194 ), #47 ) ;
#129 = PRESENTATION_STYLE_ASSIGNMENT (( #75 ) ) ;
#130 = CARTESIAN_POINT ( 'NONE',  ( 0.0000000000000000000, 0.8499999999999999800, -0.3750000000000000600 ) ) ;
#131 = DIRECTION ( 'NONE',  ( -0.0000000000000000000, -1.000000000000000000, -0.0000000000000000000 ) ) ;
#132 = SURFACE_STYLE_USAGE ( .BOTH. , #205 ) ;
#133 = VECTOR ( 'NONE', #131, 39.37007874015748100 ) ;
#134 = ORIENTED_EDGE ( 'NONE', *, *, #14, .F. ) ;
#135 = AXIS2_PLACEMENT_3D ( 'NONE', #88, #124, #52 ) ;
#136 = COLOUR_RGB ( '',0.7960784313725489700, 0.8235294117647058400, 0.9372549019607843100 ) ;
#137 = ORIENTED_EDGE ( 'NONE', *, *, #100, .F. ) ;
#138 = UNCERTAINTY_MEASURE_WITH_UNIT (LENGTH_MEASURE( 1.000000000000000100E-005 ), #166, 'distance_accuracy_value', 'NONE');
#139 = ORIENTED_EDGE ( 'NONE', *, *, #100, .T. ) ;
#140 = DIRECTION ( 'NONE',  ( 0.0000000000000000000, 1.000000000000000000, 0.0000000000000000000 ) ) ;
#141 = CIRCLE ( 'NONE', #158, 0.1899999999999999700 ) ;
#142 = VERTEX_POINT ( 'NONE', #130 ) ;
#143 = CARTESIAN_POINT ( 'NONE',  ( 0.0000000000000000000, 0.8499999999999999800, 0.0000000000000000000 ) ) ;
#144 = ORIENTED_EDGE ( 'NONE', *, *, #83, .F. ) ;
#145 = DIRECTION ( 'NONE',  ( 0.0000000000000000000, 0.0000000000000000000, 1.000000000000000000 ) ) ;
#146 = CARTESIAN_POINT ( 'NONE',  ( 0.0000000000000000000, 0.0000000000000000000, 0.0000000000000000000 ) ) ;
#147 = EDGE_CURVE ( 'NONE', #96, #85, #84, .T. ) ;
#148 = CIRCLE ( 'NONE', #46, 0.3750000000000000600 ) ;
#149 = ORIENTED_EDGE ( 'NONE', *, *, #91, .T. ) ;
#150 = EDGE_LOOP ( 'NONE', ( #134, #99, #12, #144 ) ) ;
#151 = ADVANCED_BREP_SHAPE_REPRESENTATION ( 'am-1307 850 long 380 id REV2', ( #185, #67 ), #56 ) ;
#152 = FACE_BOUND ( 'NONE', #115, .T. ) ;
#153 = FACE_OUTER_BOUND ( 'NONE', #150, .T. ) ;
#154 = AXIS2_PLACEMENT_3D ( 'NONE', #110, #40, #25 ) ;
#155 = FACE_OUTER_BOUND ( 'NONE', #51, .T. ) ;
#156 = VERTEX_POINT ( 'NONE', #177 ) ;
#157 = LENGTH_MEASURE_WITH_UNIT ( LENGTH_MEASURE( 0.02539999999999999900 ), #208 );
#158 = AXIS2_PLACEMENT_3D ( 'NONE', #61, #179, #145 ) ;
#159 = DIRECTION ( 'NONE',  ( 0.0000000000000000000, 1.000000000000000000, 0.0000000000000000000 ) ) ;
#160 = DIRECTION ( 'NONE',  ( 0.0000000000000000000, 1.000000000000000000, 0.0000000000000000000 ) ) ;
#161 = CARTESIAN_POINT ( 'NONE',  ( 4.592425496802575500E-017, 0.8499999999999999800, 0.3750000000000000600 ) ) ;
#162 = DIRECTION ( 'NONE',  ( 0.0000000000000000000, -0.0000000000000000000, 1.000000000000000000 ) ) ;
#163 = PRESENTATION_LAYER_ASSIGNMENT (  '', '', ( #31 ) ) ;
#164 = FACE_OUTER_BOUND ( 'NONE', #86, .T. ) ;
#165 = CLOSED_SHELL ( 'NONE', ( #53, #97, #126, #120, #48, #5 ) ) ;
#166 =( CONVERSION_BASED_UNIT ( 'INCH', #157 ) LENGTH_UNIT ( ) NAMED_UNIT ( #16 ) );
#167 = DIRECTION ( 'NONE',  ( 0.0000000000000000000, 0.0000000000000000000, 1.000000000000000000 ) ) ;
#168 =( NAMED_UNIT ( * ) PLANE_ANGLE_UNIT ( ) SI_UNIT ( $, .RADIAN. ) );
#169 = PRESENTATION_STYLE_ASSIGNMENT (( #132 ) ) ;
#170 = PRODUCT_RELATED_PRODUCT_CATEGORY ( 'part', '', ( #189 ) ) ;
#171 = DIMENSIONAL_EXPONENTS ( 1.000000000000000000, 0.0000000000000000000, 0.0000000000000000000, 0.0000000000000000000, 0.0000000000000000000, 0.0000000000000000000, 0.0000000000000000000 ) ;
#172 = AXIS2_PLACEMENT_3D ( 'NONE', #180, #93, #94 ) ;
#173 = CYLINDRICAL_SURFACE ( 'NONE', #215, 0.3750000000000000600 ) ;
#174 = EDGE_LOOP ( 'NONE', ( #137, #103, #73, #193 ) ) ;
#175 = CIRCLE ( 'NONE', #112, 0.1899999999999999700 ) ;
#176 = MECHANICAL_DESIGN_GEOMETRIC_PRESENTATION_REPRESENTATION (  '', ( #31 ), #192 ) ;
#177 = CARTESIAN_POINT ( 'NONE',  ( 0.0000000000000000000, 0.8499999999999999800, -0.1899999999999999700 ) ) ;
#178 = ORIENTED_EDGE ( 'NONE', *, *, #76, .F. ) ;
#179 = DIRECTION ( 'NONE',  ( 0.0000000000000000000, 1.000000000000000000, 0.0000000000000000000 ) ) ;
#180 = CARTESIAN_POINT ( 'NONE',  ( 0.0000000000000000000, 0.8499999999999999800, 0.0000000000000000000 ) ) ;
#181 = DIRECTION ( 'NONE',  ( 0.0000000000000000000, 0.0000000000000000000, -1.000000000000000000 ) ) ;
#182 = PRODUCT_DEFINITION ( 'UNKNOWN', '', #116, #212 ) ;
#183 = PLANE ( 'NONE',  #172 ) ;
#184 = FACE_OUTER_BOUND ( 'NONE', #60, .T. ) ;
#185 = MANIFOLD_SOLID_BREP ( 'Boss-Extrude1', #165 ) ;
#186 = CARTESIAN_POINT ( 'NONE',  ( 0.0000000000000000000, 0.0000000000000000000, 0.0000000000000000000 ) ) ;
#187 = ORIENTED_EDGE ( 'NONE', *, *, #118, .F. ) ;
#188 = DIRECTION ( 'NONE',  ( 0.0000000000000000000, 1.000000000000000000, 0.0000000000000000000 ) ) ;
#189 = PRODUCT ( 'am-1307 850 long 380 id REV2', 'am-1307 850 long 380 id REV2', '', ( #79 ) ) ;
#190 = CIRCLE ( 'NONE', #209, 0.3750000000000000600 ) ;
#191 = VERTEX_POINT ( 'NONE', #55 ) ;
#192 =( GEOMETRIC_REPRESENTATION_CONTEXT ( 3 ) GLOBAL_UNCERTAINTY_ASSIGNED_CONTEXT ( ( #10 ) ) GLOBAL_UNIT_ASSIGNED_CONTEXT ( ( #59, #127, #26 ) ) REPRESENTATION_CONTEXT ( 'NONE', 'WORKASPACE' ) );
#193 = ORIENTED_EDGE ( 'NONE', *, *, #76, .T. ) ;
#194 = STYLED_ITEM ( 'NONE', ( #169 ), #151 ) ;
#195 = CARTESIAN_POINT ( 'NONE',  ( 0.0000000000000000000, 0.8499999999999999800, 0.0000000000000000000 ) ) ;
#196 = CARTESIAN_POINT ( 'NONE',  ( 0.0000000000000000000, 0.8499999999999999800, 0.0000000000000000000 ) ) ;
#197 = CARTESIAN_POINT ( 'NONE',  ( 2.326828918379970900E-017, 0.8499999999999999800, 0.1899999999999999700 ) ) ;
#198 = ORIENTED_EDGE ( 'NONE', *, *, #222, .F. ) ;
#199 = DIRECTION ( 'NONE',  ( 0.0000000000000000000, 0.0000000000000000000, 1.000000000000000000 ) ) ;
#200 = ORIENTED_EDGE ( 'NONE', *, *, #206, .F. ) ;
#201 = DIRECTION ( 'NONE',  ( -0.0000000000000000000, -1.000000000000000000, -0.0000000000000000000 ) ) ;
#202 = PRESENTATION_LAYER_ASSIGNMENT (  '', '', ( #194 ) ) ;
#203 = APPLICATION_CONTEXT ( 'automotive_design' ) ;
#204 = CYLINDRICAL_SURFACE ( 'NONE', #119, 0.3750000000000000600 ) ;
#205 = SURFACE_SIDE_STYLE ('',( #121 ) ) ;
#206 = EDGE_CURVE ( 'NONE', #156, #96, #89, .T. ) ;
#207 = FILL_AREA_STYLE_COLOUR ( '', #136 ) ;
#208 =( LENGTH_UNIT ( ) NAMED_UNIT ( * ) SI_UNIT ( $, .METRE. ) );
#209 = AXIS2_PLACEMENT_3D ( 'NONE', #50, #140, #125 ) ;
#210 = COLOUR_RGB ( '',0.7960784313725489700, 0.8235294117647058400, 0.9372549019607843100 ) ;
#211 = CARTESIAN_POINT ( 'NONE',  ( 2.326828918379970900E-017, 0.8499999999999999800, 0.1899999999999999700 ) ) ;
#212 = PRODUCT_DEFINITION_CONTEXT ( 'detailed design', #29, 'design' ) ;
#213 = CIRCLE ( 'NONE', #43, 0.3750000000000000600 ) ;
#214 = ORIENTED_EDGE ( 'NONE', *, *, #82, .F. ) ;
#215 = AXIS2_PLACEMENT_3D ( 'NONE', #102, #20, #181 ) ;
#216 = DIRECTION ( 'NONE',  ( 0.0000000000000000000, 1.000000000000000000, 0.0000000000000000000 ) ) ;
#217 = FACE_OUTER_BOUND ( 'NONE', #174, .T. ) ;
#218 = UNCERTAINTY_MEASURE_WITH_UNIT (LENGTH_MEASURE( 1.000000000000000100E-005 ), #62, 'distance_accuracy_value', 'NONE');
#219 = CYLINDRICAL_SURFACE ( 'NONE', #2, 0.1899999999999999700 ) ;
#220 = FILL_AREA_STYLE ('',( #207 ) ) ;
#221 = ORIENTED_EDGE ( 'NONE', *, *, #104, .F. ) ;
#222 = EDGE_CURVE ( 'NONE', #191, #7, #213, .T. ) ;
#223 = SHAPE_DEFINITION_REPRESENTATION ( #21, #151 ) ;
ENDSEC;
END-ISO-10303-21;
