ISO-10303-21;
HEADER;
FILE_DESCRIPTION (( 'STEP AP214' ),
    '1' );
FILE_NAME ('am-3226-100 6mm D Shaft 100mm REV3.STEP',
    '2018-06-12T14:58:08',
    ( '' ),
    ( '' ),
    'SwSTEP 2.0',
    'SolidWorks 2017',
    '' );
FILE_SCHEMA (( 'AUTOMOTIVE_DESIGN' ));
ENDSEC;

DATA;
#1 = DIRECTION ( 'NONE',  ( 1.000000000000000000, 0.0000000000000000000, -0.0000000000000000000 ) ) ;
#2 = CARTESIAN_POINT ( 'NONE',  ( 0.06528788957669547100, 0.09842519684995716700, 3.927007874016184900 ) ) ;
#3 = EDGE_LOOP ( 'NONE', ( #348, #154, #129, #202, #111, #206 ) ) ;
#4 = CARTESIAN_POINT ( 'NONE',  ( -0.06528788957392521500, 0.09842519685039369200, 3.937007874015748100 ) ) ;
#5 =( GEOMETRIC_REPRESENTATION_CONTEXT ( 3 ) GLOBAL_UNCERTAINTY_ASSIGNED_CONTEXT ( ( #328 ) ) GLOBAL_UNIT_ASSIGNED_CONTEXT ( ( #53, #258, #78 ) ) REPRESENTATION_CONTEXT ( 'NONE', 'WORKASPACE' ) );
#6 = ADVANCED_FACE ( 'NONE', ( #9 ), #133, .F. ) ;
#7 = DIRECTION ( 'NONE',  ( 1.000000000000000000, 0.0000000000000000000, -0.0000000000000000000 ) ) ;
#8 = CARTESIAN_POINT ( 'NONE',  ( 0.06219974065176760900, 0.08842519685036606700, -2.597001051189051300E-014 ) ) ;
#9 = FACE_OUTER_BOUND ( 'NONE', #147, .T. ) ;
#10 = PRODUCT_DEFINITION_FORMATION_WITH_SPECIFIED_SOURCE ( 'ANY', '', #320, .NOT_KNOWN. ) ;
#11 = DIRECTION ( 'NONE',  ( -1.000000000000000000, 0.0000000000000000000, 0.0000000000000000000 ) ) ;
#12 = CARTESIAN_POINT ( 'NONE',  ( -0.06219974065364648800, 0.08842519685036606700, -2.597016634594414300E-014 ) ) ;
#13 = ORIENTED_EDGE ( 'NONE', *, *, #85, .F. ) ;
#14 = AXIS2_PLACEMENT_3D ( 'NONE', #165, #356, #192 ) ;
#15 = CIRCLE ( 'NONE', #231, 0.1081102362183098500 ) ;
#16 = DIRECTION ( 'NONE',  ( -0.0000000000000000000, -0.0000000000000000000, -1.000000000000000000 ) ) ;
#17 = CARTESIAN_POINT ( 'NONE',  ( -0.06528788957195355600, 0.09842519685034173400, 0.009999999999948215200 ) ) ;
#18 = CARTESIAN_POINT ( 'NONE',  ( 0.0000000000000000000, 0.0000000000000000000, 3.937007874015748100 ) ) ;
#19 = ORIENTED_EDGE ( 'NONE', *, *, #153, .T. ) ;
#20 = DIRECTION ( 'NONE',  ( -1.000000000000000000, -0.0000000000000000000, 0.0000000000000000000 ) ) ;
#21 = AXIS2_PLACEMENT_3D ( 'NONE', #176, #79, #288 ) ;
#22 = FACE_OUTER_BOUND ( 'NONE', #359, .T. ) ;
#23 = CARTESIAN_POINT ( 'NONE',  ( 0.0000000000000000000, 0.0000000000000000000, 0.009999999999369655500 ) ) ;
#24 = DIRECTION ( 'NONE',  ( 0.0000000000000000000, 1.000000000000000000, 0.0000000000000000000 ) ) ;
#25 = DIRECTION ( 'NONE',  ( 0.0000000000000000000, 1.000000000000000000, 0.0000000000000000000 ) ) ;
#26 =( CONVERSION_BASED_UNIT ( 'INCH', #113 ) LENGTH_UNIT ( ) NAMED_UNIT ( #145 ) );
#27 = VECTOR ( 'NONE', #169, 39.37007874015748100 ) ;
#28 = CONICAL_SURFACE ( 'NONE', #183, 0.1181102362176795100, 0.7853981633974482800 ) ;
#29 = ORIENTED_EDGE ( 'NONE', *, *, #153, .F. ) ;
#30 = CARTESIAN_POINT ( 'NONE',  ( 0.0000000000000000000, 0.0000000000000000000, 0.0000000000000000000 ) ) ;
#31 = AXIS2_PLACEMENT_3D ( 'NONE', #246, #100, #11 ) ;
#32 = CARTESIAN_POINT ( 'NONE',  ( 0.0000000000000000000, 0.0000000000000000000, 0.0000000000000000000 ) ) ;
#33 = ORIENTED_EDGE ( 'NONE', *, *, #346, .F. ) ;
#34 = PLANE ( 'NONE',  #159 ) ;
#35 = CIRCLE ( 'NONE', #55, 0.1181102362204724500 ) ;
#36 = DIRECTION ( 'NONE',  ( 0.0000000000000000000, -0.7071067811865632300, -0.7071067811865318100 ) ) ;
#37 = ADVANCED_FACE ( 'NONE', ( #102 ), #34, .F. ) ;
#38 = CARTESIAN_POINT ( 'NONE',  ( 0.0000000000000000000, 0.0000000000000000000, 0.01000000000000016700 ) ) ;
#39 = CARTESIAN_POINT ( 'NONE',  ( 0.06325347285718355100, 0.09175472384131867800, 0.003329526990686637900 ) ) ;
#40 = CARTESIAN_POINT ( 'NONE',  ( 0.06528788957669547100, 0.09842519684995716700, 3.927007874016184900 ) ) ;
#41 = EDGE_LOOP ( 'NONE', ( #321, #64, #219, #142 ) ) ;
#42 = CIRCLE ( 'NONE', #181, 0.1181102362204724500 ) ;
#43 = CARTESIAN_POINT ( 'NONE',  ( -0.1181102362183100200, 1.446433227312911500E-017, 0.01000000000000016700 ) ) ;
#44 = ORIENTED_EDGE ( 'NONE', *, *, #98, .F. ) ;
#45 = CIRCLE ( 'NONE', #14, 0.1181102362204724500 ) ;
#46 = DIRECTION ( 'NONE',  ( 0.0000000000000000000, -0.0000000000000000000, 1.000000000000000000 ) ) ;
#47 = EDGE_CURVE ( 'NONE', #156, #186, #264, .T. ) ;
#48 = ADVANCED_FACE ( 'NONE', ( #90 ), #96, .F. ) ;
#49 = ORIENTED_EDGE ( 'NONE', *, *, #285, .T. ) ;
#50 = CARTESIAN_POINT ( 'NONE',  ( -0.06528788957669876000, 0.09842519684995629200, 3.927007874016185300 ) ) ;
#51 = CARTESIAN_POINT ( 'NONE',  ( -0.06528788957669876000, 0.09842519684995629200, 3.927007874016185300 ) ) ;
#52 = FACE_OUTER_BOUND ( 'NONE', #157, .T. ) ;
#53 =( CONVERSION_BASED_UNIT ( 'INCH', #178 ) LENGTH_UNIT ( ) NAMED_UNIT ( #237 ) );
#54 =( NAMED_UNIT ( * ) SI_UNIT ( $, .STERADIAN. ) SOLID_ANGLE_UNIT ( ) );
#55 = AXIS2_PLACEMENT_3D ( 'NONE', #139, #336, #166 ) ;
#56 =( GEOMETRIC_REPRESENTATION_CONTEXT ( 3 ) GLOBAL_UNCERTAINTY_ASSIGNED_CONTEXT ( ( #124 ) ) GLOBAL_UNIT_ASSIGNED_CONTEXT ( ( #26, #230, #54 ) ) REPRESENTATION_CONTEXT ( 'NONE', 'WORKASPACE' ) );
#57 = CARTESIAN_POINT ( 'NONE',  ( 0.06325347286645989500, 0.09175472384069931200, 3.933678347025442600 ) ) ;
#58 = DIRECTION ( 'NONE',  ( 0.0000000000000000000, -0.7071067811865318100, 0.7071067811865632300 ) ) ;
#59 = DIRECTION ( 'NONE',  ( -1.000000000000000000, 0.0000000000000000000, 0.0000000000000000000 ) ) ;
#60 = DIRECTION ( 'NONE',  ( 0.0000000000000000000, -0.7071067811865444600, 0.7071067811865504600 ) ) ;
#61 = EDGE_CURVE ( 'NONE', #101, #156, #136, .T. ) ;
#62 = ADVANCED_FACE ( 'NONE', ( #52 ), #298, .T. ) ;
#63 = CARTESIAN_POINT ( 'NONE',  ( 0.0000000000000000000, 0.0000000000000000000, 0.0000000000000000000 ) ) ;
#64 = ORIENTED_EDGE ( 'NONE', *, *, #85, .T. ) ;
#65 = CARTESIAN_POINT ( 'NONE',  ( 0.06428178102012342700, 0.09508831229185195400, 0.006663115441458592600 ) ) ;
#66 =( GEOMETRIC_REPRESENTATION_CONTEXT ( 3 ) GLOBAL_UNCERTAINTY_ASSIGNED_CONTEXT ( ( #293 ) ) GLOBAL_UNIT_ASSIGNED_CONTEXT ( ( #143, #340, #171 ) ) REPRESENTATION_CONTEXT ( 'NONE', 'WORKASPACE' ) );
#67 = ADVANCED_FACE ( 'NONE', ( #260 ), #155, .T. ) ;
#68 = AXIS2_PLACEMENT_3D ( 'NONE', #273, #217, #7 ) ;
#69 = ORIENTED_EDGE ( 'NONE', *, *, #232, .F. ) ;
#70 = CARTESIAN_POINT ( 'NONE',  ( 0.1181102362204724500, 1.446433227339393800E-017, 3.937007874015748100 ) ) ;
#71 = EDGE_CURVE ( 'NONE', #125, #226, #15, .T. ) ;
#72 = LINE ( 'NONE', #309, #27 ) ;
#73 = CARTESIAN_POINT ( 'NONE',  ( 0.0000000000000000000, 0.0000000000000000000, 3.927007874015748400 ) ) ;
#74 = FILL_AREA_STYLE ('',( #170 ) ) ;
#75 = EDGE_CURVE ( 'NONE', #324, #245, #339, .T. ) ;
#76 = ORIENTED_EDGE ( 'NONE', *, *, #71, .F. ) ;
#77 = DIRECTION ( 'NONE',  ( 0.0000000000000000000, -2.312964634646611600E-015, -1.000000000000000000 ) ) ;
#78 =( NAMED_UNIT ( * ) SI_UNIT ( $, .STERADIAN. ) SOLID_ANGLE_UNIT ( ) );
#79 = DIRECTION ( 'NONE',  ( 0.0000000000000000000, 0.0000000000000000000, 1.000000000000000000 ) ) ;
#80 = VERTEX_POINT ( 'NONE', #216 ) ;
#81 = ORIENTED_EDGE ( 'NONE', *, *, #75, .F. ) ;
#82 = VECTOR ( 'NONE', #330, 39.37007874015748100 ) ;
#83 = EDGE_CURVE ( 'NONE', #187, #184, #267, .T. ) ;
#84 = ORIENTED_EDGE ( 'NONE', *, *, #232, .T. ) ;
#85 = EDGE_CURVE ( 'NONE', #226, #80, #127, .T. ) ;
#86 = FACE_OUTER_BOUND ( 'NONE', #122, .T. ) ;
#87 = ORIENTED_EDGE ( 'NONE', *, *, #61, .T. ) ;
#88 = PRODUCT_RELATED_PRODUCT_CATEGORY ( 'part', '', ( #320 ) ) ;
#89 = VERTEX_POINT ( 'NONE', #352 ) ;
#90 = FACE_OUTER_BOUND ( 'NONE', #297, .T. ) ;
#91 = AXIS2_PLACEMENT_3D ( 'NONE', #307, #357, #247 ) ;
#92 = EDGE_CURVE ( 'NONE', #226, #187, #214, .T. ) ;
#93 = DIRECTION ( 'NONE',  ( 0.0000000000000000000, -1.000000000000000000, 0.0000000000000000000 ) ) ;
#94 = ORIENTED_EDGE ( 'NONE', *, *, #98, .T. ) ;
#95 = FACE_OUTER_BOUND ( 'NONE', #3, .T. ) ;
#96 = PLANE ( 'NONE',  #291 ) ;
#97 = DIRECTION ( 'NONE',  ( 1.000000000000000000, 0.0000000000000000000, 0.0000000000000000000 ) ) ;
#98 = EDGE_CURVE ( 'NONE', #245, #101, #249, .T. ) ;
#99 = CARTESIAN_POINT ( 'NONE',  ( 0.0000000000000000000, 0.08842519685039151900, 3.937007874015748100 ) ) ;
#100 = DIRECTION ( 'NONE',  ( -0.0000000000000000000, -0.0000000000000000000, -1.000000000000000000 ) ) ;
#101 = VERTEX_POINT ( 'NONE', #355 ) ;
#102 = FACE_OUTER_BOUND ( 'NONE', #261, .T. ) ;
#103 = AXIS2_PLACEMENT_3D ( 'NONE', #174, #362, #200 ) ;
#104 = CARTESIAN_POINT ( 'NONE',  ( -0.1081102362183098500, 1.385200887355557600E-017, 0.0000000000000000000 ) ) ;
#105 = DIRECTION ( 'NONE',  ( -1.000000000000000000, 0.0000000000000000000, 0.0000000000000000000 ) ) ;
#106 = ORIENTED_EDGE ( 'NONE', *, *, #270, .T. ) ;
#107 = SURFACE_STYLE_USAGE ( .BOTH. , #284 ) ;
#108 = LENGTH_MEASURE_WITH_UNIT ( LENGTH_MEASURE( 0.02539999999999999900 ), #312 );
#109 = DIRECTION ( 'NONE',  ( 0.7071067811865474600, 0.0000000000000000000, 0.7071067811865475700 ) ) ;
#110 = AXIS2_PLACEMENT_3D ( 'NONE', #175, #363, #201 ) ;
#111 = ORIENTED_EDGE ( 'NONE', *, *, #152, .F. ) ;
#112 = CARTESIAN_POINT ( 'NONE',  ( 0.0000000000000000000, 0.0000000000000000000, 3.927007874019511600 ) ) ;
#113 = LENGTH_MEASURE_WITH_UNIT ( LENGTH_MEASURE( 0.02539999999999999900 ), #205 );
#114 = AXIS2_PLACEMENT_3D ( 'NONE', #112, #77, #24 ) ;
#115 = FILL_AREA_STYLE_COLOUR ( '', #326 ) ;
#116 = PRODUCT_DEFINITION ( 'UNKNOWN', '', #10, #137 ) ;
#117 = APPLICATION_PROTOCOL_DEFINITION ( 'draft international standard', 'automotive_design', 1998, #148 ) ;
#118 = VECTOR ( 'NONE', #354, 39.37007874015748100 ) ;
#119 = PRODUCT_CONTEXT ( 'NONE', #148, 'mechanical' ) ;
#120 = AXIS2_PLACEMENT_3D ( 'NONE', #63, #275, #97 ) ;
#121 = AXIS2_PLACEMENT_3D ( 'NONE', #32, #236, #1 ) ;
#122 = EDGE_LOOP ( 'NONE', ( #313, #131, #195, #286 ) ) ;
#123 = VECTOR ( 'NONE', #250, 39.37007874015748100 ) ;
#124 = UNCERTAINTY_MEASURE_WITH_UNIT (LENGTH_MEASURE( 1.000000000000000100E-005 ), #26, 'distance_accuracy_value', 'NONE');
#125 = VERTEX_POINT ( 'NONE', #304 ) ;
#126 = ORIENTED_EDGE ( 'NONE', *, *, #361, .F. ) ;
#127 = CIRCLE ( 'NONE', #120, 0.1081102362183098500 ) ;
#128 = PRODUCT_DEFINITION_SHAPE ( 'NONE', 'NONE',  #116 ) ;
#129 = ORIENTED_EDGE ( 'NONE', *, *, #303, .F. ) ;
#130 = DIRECTION ( 'NONE',  ( -0.0000000000000000000, 0.7071067811865505700, 0.7071067811865445800 ) ) ;
#131 = ORIENTED_EDGE ( 'NONE', *, *, #92, .T. ) ;
#132 = EDGE_CURVE ( 'NONE', #89, #101, #234, .T. ) ;
#133 = PLANE ( 'NONE',  #121 ) ;
#134 = DIRECTION ( 'NONE',  ( -0.7071067811865474600, 8.659560562354931600E-017, 0.7071067811865475700 ) ) ;
#135 = CARTESIAN_POINT ( 'NONE',  ( -0.06528788957392521500, 0.09842519685039369200, 3.927007874015748400 ) ) ;
#136 = LINE ( 'NONE', #188, #180 ) ;
#137 = PRODUCT_DEFINITION_CONTEXT ( 'detailed design', #314, 'design' ) ;
#138 = CARTESIAN_POINT ( 'NONE',  ( -0.06428178102012149800, 0.09508831229186834300, 0.006663115441474988300 ) ) ;
#139 = CARTESIAN_POINT ( 'NONE',  ( 0.0000000000000000000, 0.0000000000000000000, 0.01000000000000016700 ) ) ;
#140 = AXIS2_PLACEMENT_3D ( 'NONE', #244, #130, #60 ) ;
#141 = CARTESIAN_POINT ( 'NONE',  ( 0.1181102362204724500, 1.446433227339393800E-017, 3.927007874015748400 ) ) ;
#142 = ORIENTED_EDGE ( 'NONE', *, *, #83, .F. ) ;
#143 =( CONVERSION_BASED_UNIT ( 'INCH', #108 ) LENGTH_UNIT ( ) NAMED_UNIT ( #319 ) );
#144 = CARTESIAN_POINT ( 'NONE',  ( -0.06219974065825284400, 0.08842519685017477500, 3.937007874015965700 ) ) ;
#145 = DIMENSIONAL_EXPONENTS ( 1.000000000000000000, 0.0000000000000000000, 0.0000000000000000000, 0.0000000000000000000, 0.0000000000000000000, 0.0000000000000000000, 0.0000000000000000000 ) ;
#146 = CARTESIAN_POINT ( 'NONE',  ( -0.06325347286640367600, 0.09175472384053873200, 3.933678347025265000 ) ) ;
#147 = EDGE_LOOP ( 'NONE', ( #76, #150, #269, #13 ) ) ;
#148 = APPLICATION_CONTEXT ( 'automotive_design' ) ;
#149 = APPLICATION_PROTOCOL_DEFINITION ( 'draft international standard', 'automotive_design', 1998, #314 ) ;
#150 = ORIENTED_EDGE ( 'NONE', *, *, #285, .F. ) ;
#151 = FACE_OUTER_BOUND ( 'NONE', #316, .T. ) ;
#152 = EDGE_CURVE ( 'NONE', #156, #257, #45, .T. ) ;
#153 = EDGE_CURVE ( 'NONE', #186, #289, #263, .T. ) ;
#154 = ORIENTED_EDGE ( 'NONE', *, *, #346, .T. ) ;
#155 = PLANE ( 'NONE',  #140 ) ;
#156 = VERTEX_POINT ( 'NONE', #40 ) ;
#157 = EDGE_LOOP ( 'NONE', ( #126, #19 ) ) ;
#158 = AXIS2_PLACEMENT_3D ( 'NONE', #38, #191, #59 ) ;
#159 = AXIS2_PLACEMENT_3D ( 'NONE', #161, #58, #36 ) ;
#160 = DIRECTION ( 'NONE',  ( -0.0000000000000000000, -0.0000000000000000000, -1.000000000000000000 ) ) ;
#161 = CARTESIAN_POINT ( 'NONE',  ( -0.06528788957392521500, 0.09842519685039369200, 0.01000000000000016700 ) ) ;
#162 = ADVANCED_BREP_SHAPE_REPRESENTATION ( 'am-3226-100 6mm D Shaft 100mm REV3', ( #283, #21 ), #5 ) ;
#163 = CIRCLE ( 'NONE', #110, 0.1181102362204724500 ) ;
#164 = EDGE_CURVE ( 'NONE', #156, #324, #207, .T. ) ;
#165 = CARTESIAN_POINT ( 'NONE',  ( 0.0000000000000000000, 0.0000000000000000000, 3.927007874015748400 ) ) ;
#166 = DIRECTION ( 'NONE',  ( -1.000000000000000000, 0.0000000000000000000, 0.0000000000000000000 ) ) ;
#167 = CLOSED_SHELL ( 'NONE', ( #218, #295, #331, #215, #168, #268, #350, #6, #48, #62, #37, #67 ) ) ;
#168 = ADVANCED_FACE ( 'NONE', ( #349 ), #204, .T. ) ;
#169 = DIRECTION ( 'NONE',  ( -0.0000000000000000000, -0.0000000000000000000, -1.000000000000000000 ) ) ;
#170 = FILL_AREA_STYLE_COLOUR ( '', #334 ) ;
#171 =( NAMED_UNIT ( * ) SI_UNIT ( $, .STERADIAN. ) SOLID_ANGLE_UNIT ( ) );
#172 = ORIENTED_EDGE ( 'NONE', *, *, #311, .F. ) ;
#173 = VECTOR ( 'NONE', #109, 39.37007874015748100 ) ;
#174 = CARTESIAN_POINT ( 'NONE',  ( 0.0000000000000000000, 0.0000000000000000000, 3.927007874015748400 ) ) ;
#175 = CARTESIAN_POINT ( 'NONE',  ( 0.0000000000000000000, 0.0000000000000000000, 0.01000000000000016700 ) ) ;
#176 = CARTESIAN_POINT ( 'NONE',  ( 0.0000000000000000000, 0.0000000000000000000, 0.0000000000000000000 ) ) ;
#177 = SURFACE_SIDE_STYLE ('',( #197 ) ) ;
#178 = LENGTH_MEASURE_WITH_UNIT ( LENGTH_MEASURE( 0.02539999999999999900 ), #229 );
#179 = EDGE_LOOP ( 'NONE', ( #69, #235, #222, #210 ) ) ;
#180 = VECTOR ( 'NONE', #302, 39.37007874015748100 ) ;
#181 = AXIS2_PLACEMENT_3D ( 'NONE', #73, #281, #105 ) ;
#182 = EDGE_CURVE ( 'NONE', #245, #125, #209, .T. ) ;
#183 = AXIS2_PLACEMENT_3D ( 'NONE', #23, #227, #224 ) ;
#184 = VERTEX_POINT ( 'NONE', #306 ) ;
#185 = VECTOR ( 'NONE', #20, 39.37007874015748100 ) ;
#186 = VERTEX_POINT ( 'NONE', #220 ) ;
#187 = VERTEX_POINT ( 'NONE', #43 ) ;
#188 = CARTESIAN_POINT ( 'NONE',  ( 0.06528788957392520100, 0.09842519685039370600, 3.937007874015748100 ) ) ;
#189 = DIRECTION ( 'NONE',  ( 0.0000000000000000000, -0.0000000000000000000, -1.000000000000000000 ) ) ;
#190 = EDGE_CURVE ( 'NONE', #184, #101, #35, .T. ) ;
#191 = DIRECTION ( 'NONE',  ( 0.0000000000000000000, 0.0000000000000000000, 1.000000000000000000 ) ) ;
#192 = DIRECTION ( 'NONE',  ( -1.000000000000000000, 0.0000000000000000000, 0.0000000000000000000 ) ) ;
#193 = CARTESIAN_POINT ( 'NONE',  ( -0.06325347285715647600, 0.09175472384121143000, 0.003329526990818215900 ) ) ;
#194 = CARTESIAN_POINT ( 'NONE',  ( 0.0000000000000000000, 0.0000000000000000000, 0.009999999999369655500 ) ) ;
#195 = ORIENTED_EDGE ( 'NONE', *, *, #342, .F. ) ;
#196 = CARTESIAN_POINT ( 'NONE',  ( -0.06219974065825284400, 0.08842519685017477500, 3.937007874015965700 ) ) ;
#197 = SURFACE_STYLE_FILL_AREA ( #345 ) ;
#198 = DIRECTION ( 'NONE',  ( -1.000000000000000000, 0.0000000000000000000, 0.0000000000000000000 ) ) ;
#199 = ORIENTED_EDGE ( 'NONE', *, *, #190, .F. ) ;
#200 = DIRECTION ( 'NONE',  ( -1.000000000000000000, 0.0000000000000000000, 0.0000000000000000000 ) ) ;
#201 = DIRECTION ( 'NONE',  ( -1.000000000000000000, -1.776356839400250500E-015, 0.0000000000000000000 ) ) ;
#202 = ORIENTED_EDGE ( 'NONE', *, *, #252, .F. ) ;
#203 = DIRECTION ( 'NONE',  ( 0.0000000000000000000, -2.312964634646611600E-015, -1.000000000000000000 ) ) ;
#204 = CYLINDRICAL_SURFACE ( 'NONE', #31, 0.1181102362204724500 ) ;
#205 =( LENGTH_UNIT ( ) NAMED_UNIT ( * ) SI_UNIT ( $, .METRE. ) );
#206 = ORIENTED_EDGE ( 'NONE', *, *, #47, .T. ) ;
#207 = LINE ( 'NONE', #135, #82 ) ;
#208 = PRESENTATION_LAYER_ASSIGNMENT (  '', '', ( #241 ) ) ;
#209 = B_SPLINE_CURVE_WITH_KNOTS ( 'NONE', 3,
 ( #332, #138, #193, #12 ),
 .UNSPECIFIED., .F., .F.,
 ( 4, 4 ),
 ( 1.250716420646437200E-014, 0.0003676746849726164000 ),
 .UNSPECIFIED. ) ;
#210 = ORIENTED_EDGE ( 'NONE', *, *, #342, .T. ) ;
#211 = CONICAL_SURFACE ( 'NONE', #366, 0.1181102362176795100, 0.7853981633974482800 ) ;
#212 = SHAPE_DEFINITION_REPRESENTATION ( #128, #162 ) ;
#213 = AXIS2_PLACEMENT_3D ( 'NONE', #223, #46, #253 ) ;
#214 = LINE ( 'NONE', #240, #347 ) ;
#215 = ADVANCED_FACE ( 'NONE', ( #300 ), #344, .T. ) ;
#216 = CARTESIAN_POINT ( 'NONE',  ( 0.1081102362183098500, 0.0000000000000000000, 0.0000000000000000000 ) ) ;
#217 = DIRECTION ( 'NONE',  ( 0.0000000000000000000, 0.0000000000000000000, 1.000000000000000000 ) ) ;
#218 = ADVANCED_FACE ( 'NONE', ( #360 ), #315, .T. ) ;
#219 = ORIENTED_EDGE ( 'NONE', *, *, #311, .T. ) ;
#220 = CARTESIAN_POINT ( 'NONE',  ( 0.06219974066026611600, 0.08842519685017445600, 3.937007874016413800 ) ) ;
#221 = ORIENTED_EDGE ( 'NONE', *, *, #182, .F. ) ;
#222 = ORIENTED_EDGE ( 'NONE', *, *, #75, .T. ) ;
#223 = CARTESIAN_POINT ( 'NONE',  ( 0.0000000000000000000, 0.0000000000000000000, 0.0000000000000000000 ) ) ;
#224 = DIRECTION ( 'NONE',  ( 1.000000000000000000, 0.0000000000000000000, 0.0000000000000000000 ) ) ;
#225 = EDGE_CURVE ( 'NONE', #257, #184, #368, .T. ) ;
#226 = VERTEX_POINT ( 'NONE', #104 ) ;
#227 = DIRECTION ( 'NONE',  ( 0.0000000000000000000, -0.0000000000000000000, 1.000000000000000000 ) ) ;
#228 = CARTESIAN_POINT ( 'NONE',  ( -0.06428178102952189500, 0.09508831229122598200, 3.930344758574916100 ) ) ;
#229 =( LENGTH_UNIT ( ) NAMED_UNIT ( * ) SI_UNIT ( $, .METRE. ) );
#230 =( NAMED_UNIT ( * ) PLANE_ANGLE_UNIT ( ) SI_UNIT ( $, .RADIAN. ) );
#231 = AXIS2_PLACEMENT_3D ( 'NONE', #30, #351, #353 ) ;
#232 = EDGE_CURVE ( 'NONE', #238, #187, #72, .T. ) ;
#233 = STYLED_ITEM ( 'NONE', ( #278 ), #283 ) ;
#234 = B_SPLINE_CURVE_WITH_KNOTS ( 'NONE', 3,
 ( #8, #39, #65, #276 ),
 .UNSPECIFIED., .F., .F.,
 ( 4, 4 ),
 ( 9.504635405404738700E-016, 0.0003676746849958312300 ),
 .UNSPECIFIED. ) ;
#235 = ORIENTED_EDGE ( 'NONE', *, *, #303, .T. ) ;
#236 = DIRECTION ( 'NONE',  ( 0.0000000000000000000, 0.0000000000000000000, 1.000000000000000000 ) ) ;
#237 = DIMENSIONAL_EXPONENTS ( 1.000000000000000000, 0.0000000000000000000, 0.0000000000000000000, 0.0000000000000000000, 0.0000000000000000000, 0.0000000000000000000, 0.0000000000000000000 ) ;
#238 = VERTEX_POINT ( 'NONE', #337 ) ;
#239 = CIRCLE ( 'NONE', #213, 0.1081102362183098500 ) ;
#240 = CARTESIAN_POINT ( 'NONE',  ( -0.1181102362176795100, 1.446433227305189900E-017, 0.009999999999369655500 ) ) ;
#241 = STYLED_ITEM ( 'NONE', ( #318 ), #162 ) ;
#242 = ORIENTED_EDGE ( 'NONE', *, *, #225, .T. ) ;
#243 = CYLINDRICAL_SURFACE ( 'NONE', #272, 0.1181102362204724500 ) ;
#244 = CARTESIAN_POINT ( 'NONE',  ( 0.0000000000000000000, 0.08842519685039361400, 3.937007874015748100 ) ) ;
#245 = VERTEX_POINT ( 'NONE', #17 ) ;
#246 = CARTESIAN_POINT ( 'NONE',  ( 0.0000000000000000000, 0.0000000000000000000, 3.937007874015748100 ) ) ;
#247 = DIRECTION ( 'NONE',  ( 1.000000000000000000, 0.0000000000000000000, 0.0000000000000000000 ) ) ;
#248 = EDGE_LOOP ( 'NONE', ( #33, #29, #259, #274 ) ) ;
#249 = LINE ( 'NONE', #329, #118 ) ;
#250 = DIRECTION ( 'NONE',  ( -0.0000000000000000000, -0.0000000000000000000, -1.000000000000000000 ) ) ;
#251 = DIRECTION ( 'NONE',  ( 0.0000000000000000000, -0.0000000000000000000, 1.000000000000000000 ) ) ;
#252 = EDGE_CURVE ( 'NONE', #257, #238, #42, .T. ) ;
#253 = DIRECTION ( 'NONE',  ( 1.000000000000000000, 0.0000000000000000000, 0.0000000000000000000 ) ) ;
#254 = ORIENTED_EDGE ( 'NONE', *, *, #252, .T. ) ;
#255 = LINE ( 'NONE', #338, #185 ) ;
#256 = DIRECTION ( 'NONE',  ( -0.0000000000000000000, -0.0000000000000000000, -1.000000000000000000 ) ) ;
#257 = VERTEX_POINT ( 'NONE', #141 ) ;
#258 =( NAMED_UNIT ( * ) PLANE_ANGLE_UNIT ( ) SI_UNIT ( $, .RADIAN. ) );
#259 = ORIENTED_EDGE ( 'NONE', *, *, #47, .F. ) ;
#260 = FACE_OUTER_BOUND ( 'NONE', #248, .T. ) ;
#261 = EDGE_LOOP ( 'NONE', ( #49, #221, #94, #308 ) ) ;
#262 = MECHANICAL_DESIGN_GEOMETRIC_PRESENTATION_REPRESENTATION (  '', ( #241 ), #56 ) ;
#263 = LINE ( 'NONE', #99, #287 ) ;
#264 = B_SPLINE_CURVE_WITH_KNOTS ( 'NONE', 3,
 ( #2, #301, #57, #327 ),
 .UNSPECIFIED., .F., .F.,
 ( 4, 4 ),
 ( 3.214075601295882800E-016, 0.0003676746849757102300 ),
 .UNSPECIFIED. ) ;
#265 = MECHANICAL_DESIGN_GEOMETRIC_PRESENTATION_REPRESENTATION (  '', ( #233 ), #66 ) ;
#266 = ORIENTED_EDGE ( 'NONE', *, *, #164, .F. ) ;
#267 = CIRCLE ( 'NONE', #158, 0.1181102362204724500 ) ;
#268 = ADVANCED_FACE ( 'NONE', ( #151 ), #211, .T. ) ;
#269 = ORIENTED_EDGE ( 'NONE', *, *, #270, .F. ) ;
#270 = EDGE_CURVE ( 'NONE', #80, #89, #239, .T. ) ;
#271 = SURFACE_STYLE_FILL_AREA ( #74 ) ;
#272 = AXIS2_PLACEMENT_3D ( 'NONE', #18, #256, #198 ) ;
#273 = CARTESIAN_POINT ( 'NONE',  ( 0.0000000000000000000, 0.0000000000000000000, 3.937007874015748100 ) ) ;
#274 = ORIENTED_EDGE ( 'NONE', *, *, #164, .T. ) ;
#275 = DIRECTION ( 'NONE',  ( 0.0000000000000000000, -0.0000000000000000000, 1.000000000000000000 ) ) ;
#276 = CARTESIAN_POINT ( 'NONE',  ( 0.06528788957195008600, 0.09842519685033017400, 0.009999999999936662000 ) ) ;
#277 = ORIENTED_EDGE ( 'NONE', *, *, #190, .T. ) ;
#278 = PRESENTATION_STYLE_ASSIGNMENT (( #107 ) ) ;
#279 = DIRECTION ( 'NONE',  ( -1.000000000000000000, 0.0000000000000000000, 0.0000000000000000000 ) ) ;
#280 = ORIENTED_EDGE ( 'NONE', *, *, #132, .T. ) ;
#281 = DIRECTION ( 'NONE',  ( -0.0000000000000000000, -0.0000000000000000000, -1.000000000000000000 ) ) ;
#282 = CONICAL_SURFACE ( 'NONE', #114, 0.1181102362199174400, 0.7853981633974482800 ) ;
#283 = MANIFOLD_SOLID_BREP ( 'Chamfer1', #167 ) ;
#284 = SURFACE_SIDE_STYLE ('',( #271 ) ) ;
#285 = EDGE_CURVE ( 'NONE', #89, #125, #255, .T. ) ;
#286 = ORIENTED_EDGE ( 'NONE', *, *, #182, .T. ) ;
#287 = VECTOR ( 'NONE', #305, 39.37007874015748100 ) ;
#288 = DIRECTION ( 'NONE',  ( 1.000000000000000000, 0.0000000000000000000, 0.0000000000000000000 ) ) ;
#289 = VERTEX_POINT ( 'NONE', #196 ) ;
#290 = VECTOR ( 'NONE', #160, 39.37007874015748100 ) ;
#291 = AXIS2_PLACEMENT_3D ( 'NONE', #4, #93, #189 ) ;
#292 = AXIS2_PLACEMENT_3D ( 'NONE', #364, #203, #25 ) ;
#293 = UNCERTAINTY_MEASURE_WITH_UNIT (LENGTH_MEASURE( 1.000000000000000100E-005 ), #143, 'distance_accuracy_value', 'NONE');
#294 = B_SPLINE_CURVE_WITH_KNOTS ( 'NONE', 3,
 ( #144, #146, #228, #51 ),
 .UNSPECIFIED., .F., .F.,
 ( 4, 4 ),
 ( 7.106441597242106800E-015, 0.0003676746849719672900 ),
 .UNSPECIFIED. ) ;
#295 = ADVANCED_FACE ( 'NONE', ( #22 ), #243, .T. ) ;
#296 = ORIENTED_EDGE ( 'NONE', *, *, #61, .F. ) ;
#297 = EDGE_LOOP ( 'NONE', ( #44, #81, #266, #296 ) ) ;
#298 = PLANE ( 'NONE',  #68 ) ;
#299 = PRESENTATION_LAYER_ASSIGNMENT (  '', '', ( #233 ) ) ;
#300 = FACE_OUTER_BOUND ( 'NONE', #41, .T. ) ;
#301 = CARTESIAN_POINT ( 'NONE',  ( 0.06428178102940237900, 0.09508831229085840100, 3.930344758574510600 ) ) ;
#302 = DIRECTION ( 'NONE',  ( 0.0000000000000000000, 0.0000000000000000000, 1.000000000000000000 ) ) ;
#303 = EDGE_CURVE ( 'NONE', #238, #324, #317, .T. ) ;
#304 = CARTESIAN_POINT ( 'NONE',  ( -0.06219974065364648800, 0.08842519685036606700, -2.597016634594414300E-014 ) ) ;
#305 = DIRECTION ( 'NONE',  ( -1.000000000000000000, -0.0000000000000000000, 0.0000000000000000000 ) ) ;
#306 = CARTESIAN_POINT ( 'NONE',  ( 0.1181102362183100200, 0.0000000000000000000, 0.01000000000000016700 ) ) ;
#307 = CARTESIAN_POINT ( 'NONE',  ( 0.0000000000000000000, 0.0000000000000000000, 0.009999999999369655500 ) ) ;
#308 = ORIENTED_EDGE ( 'NONE', *, *, #132, .F. ) ;
#309 = CARTESIAN_POINT ( 'NONE',  ( -0.1181102362204724500, 0.0000000000000000000, 3.937007874015748100 ) ) ;
#310 = DIRECTION ( 'NONE',  ( 1.000000000000000000, 0.0000000000000000000, 0.0000000000000000000 ) ) ;
#311 = EDGE_CURVE ( 'NONE', #80, #184, #325, .T. ) ;
#312 =( LENGTH_UNIT ( ) NAMED_UNIT ( * ) SI_UNIT ( $, .METRE. ) );
#313 = ORIENTED_EDGE ( 'NONE', *, *, #71, .T. ) ;
#314 = APPLICATION_CONTEXT ( 'automotive_design' ) ;
#315 = CYLINDRICAL_SURFACE ( 'NONE', #335, 0.1181102362204724500 ) ;
#316 = EDGE_LOOP ( 'NONE', ( #172, #106, #280, #199 ) ) ;
#317 = CIRCLE ( 'NONE', #103, 0.1181102362204724500 ) ;
#318 = PRESENTATION_STYLE_ASSIGNMENT (( #365 ) ) ;
#319 = DIMENSIONAL_EXPONENTS ( 1.000000000000000000, 0.0000000000000000000, 0.0000000000000000000, 0.0000000000000000000, 0.0000000000000000000, 0.0000000000000000000, 0.0000000000000000000 ) ;
#320 = PRODUCT ( 'am-3226-100 6mm D Shaft 100mm REV3', 'am-3226-100 6mm D Shaft 100mm REV3', '', ( #119 ) ) ;
#321 = ORIENTED_EDGE ( 'NONE', *, *, #92, .F. ) ;
#322 = CIRCLE ( 'NONE', #292, 0.1081102362227857000 ) ;
#323 = CARTESIAN_POINT ( 'NONE',  ( -0.06528788957392521500, 0.09842519685039369200, 3.937007874015748100 ) ) ;
#324 = VERTEX_POINT ( 'NONE', #50 ) ;
#325 = LINE ( 'NONE', #341, #173 ) ;
#326 = COLOUR_RGB ( '',0.6509803921568627600, 0.6196078431372549200, 0.5882352941176470800 ) ;
#327 = CARTESIAN_POINT ( 'NONE',  ( 0.06219974066026611600, 0.08842519685017445600, 3.937007874016413800 ) ) ;
#328 = UNCERTAINTY_MEASURE_WITH_UNIT (LENGTH_MEASURE( 1.000000000000000100E-005 ), #53, 'distance_accuracy_value', 'NONE');
#329 = CARTESIAN_POINT ( 'NONE',  ( -0.06528788957392521500, 0.09842519685039369200, 0.01000000000000016700 ) ) ;
#330 = DIRECTION ( 'NONE',  ( -1.000000000000000000, -0.0000000000000000000, -0.0000000000000000000 ) ) ;
#331 = ADVANCED_FACE ( 'NONE', ( #86 ), #28, .T. ) ;
#332 = CARTESIAN_POINT ( 'NONE',  ( -0.06528788957195355600, 0.09842519685034173400, 0.009999999999948215200 ) ) ;
#333 = ORIENTED_EDGE ( 'NONE', *, *, #152, .T. ) ;
#334 = COLOUR_RGB ( '',0.6509803921568627600, 0.6196078431372549200, 0.5882352941176470800 ) ;
#335 = AXIS2_PLACEMENT_3D ( 'NONE', #358, #16, #279 ) ;
#336 = DIRECTION ( 'NONE',  ( 0.0000000000000000000, 0.0000000000000000000, 1.000000000000000000 ) ) ;
#337 = CARTESIAN_POINT ( 'NONE',  ( -0.1181102362204724500, 0.0000000000000000000, 3.927007874015748400 ) ) ;
#338 = CARTESIAN_POINT ( 'NONE',  ( 0.0000000000000000000, 0.08842519685039099100, 0.0000000000000000000 ) ) ;
#339 = LINE ( 'NONE', #323, #290 ) ;
#340 =( NAMED_UNIT ( * ) PLANE_ANGLE_UNIT ( ) SI_UNIT ( $, .RADIAN. ) );
#341 = CARTESIAN_POINT ( 'NONE',  ( 0.1181102362176795100, 0.0000000000000000000, 0.009999999999369655500 ) ) ;
#342 = EDGE_CURVE ( 'NONE', #245, #187, #163, .T. ) ;
#343 = ORIENTED_EDGE ( 'NONE', *, *, #83, .T. ) ;
#344 = CONICAL_SURFACE ( 'NONE', #91, 0.1181102362176795100, 0.7853981633974482800 ) ;
#345 = FILL_AREA_STYLE ('',( #115 ) ) ;
#346 = EDGE_CURVE ( 'NONE', #289, #324, #294, .T. ) ;
#347 = VECTOR ( 'NONE', #134, 39.37007874015748100 ) ;
#348 = ORIENTED_EDGE ( 'NONE', *, *, #361, .T. ) ;
#349 = FACE_OUTER_BOUND ( 'NONE', #179, .T. ) ;
#350 = ADVANCED_FACE ( 'NONE', ( #95 ), #282, .T. ) ;
#351 = DIRECTION ( 'NONE',  ( 0.0000000000000000000, -0.0000000000000000000, 1.000000000000000000 ) ) ;
#352 = CARTESIAN_POINT ( 'NONE',  ( 0.06219974065176760900, 0.08842519685036606700, -2.597001051189051300E-014 ) ) ;
#353 = DIRECTION ( 'NONE',  ( 1.000000000000000000, 0.0000000000000000000, 0.0000000000000000000 ) ) ;
#354 = DIRECTION ( 'NONE',  ( 1.000000000000000000, 0.0000000000000000000, 0.0000000000000000000 ) ) ;
#355 = CARTESIAN_POINT ( 'NONE',  ( 0.06528788957195008600, 0.09842519685033017400, 0.009999999999936662000 ) ) ;
#356 = DIRECTION ( 'NONE',  ( -0.0000000000000000000, -0.0000000000000000000, -1.000000000000000000 ) ) ;
#357 = DIRECTION ( 'NONE',  ( 0.0000000000000000000, -0.0000000000000000000, 1.000000000000000000 ) ) ;
#358 = CARTESIAN_POINT ( 'NONE',  ( 0.0000000000000000000, 0.0000000000000000000, 3.937007874015748100 ) ) ;
#359 = EDGE_LOOP ( 'NONE', ( #367, #254, #84, #343 ) ) ;
#360 = FACE_OUTER_BOUND ( 'NONE', #369, .T. ) ;
#361 = EDGE_CURVE ( 'NONE', #186, #289, #322, .T. ) ;
#362 = DIRECTION ( 'NONE',  ( -0.0000000000000000000, -0.0000000000000000000, -1.000000000000000000 ) ) ;
#363 = DIRECTION ( 'NONE',  ( 0.0000000000000000000, 0.0000000000000000000, 1.000000000000000000 ) ) ;
#364 = CARTESIAN_POINT ( 'NONE',  ( 0.0000000000000000000, 2.312964633983190100E-017, 3.937007874016643400 ) ) ;
#365 = SURFACE_STYLE_USAGE ( .BOTH. , #177 ) ;
#366 = AXIS2_PLACEMENT_3D ( 'NONE', #194, #251, #310 ) ;
#367 = ORIENTED_EDGE ( 'NONE', *, *, #225, .F. ) ;
#368 = LINE ( 'NONE', #70, #123 ) ;
#369 = EDGE_LOOP ( 'NONE', ( #333, #242, #277, #87 ) ) ;
ENDSEC;
END-ISO-10303-21;
