ISO-10303-21;
HEADER;
FILE_DESCRIPTION (( 'STEP AP214' ),
    '1' );
FILE_NAME ('am-3336 Rocketbox Brass Output Spacer REV2.STEP',
    '2018-06-07T17:55:10',
    ( '' ),
    ( '' ),
    'SwSTEP 2.0',
    'SolidWorks 2017',
    '' );
FILE_SCHEMA (( 'AUTOMOTIVE_DESIGN' ));
ENDSEC;

DATA;
#1 = AXIS2_PLACEMENT_3D ( 'NONE', #117, #129, #132 ) ;
#2 = ORIENTED_EDGE ( 'NONE', *, *, #103, .T. ) ;
#3 = ORIENTED_EDGE ( 'NONE', *, *, #190, .T. ) ;
#4 =( LENGTH_UNIT ( ) NAMED_UNIT ( * ) SI_UNIT ( $, .METRE. ) );
#5 = DIRECTION ( 'NONE',  ( -1.000000000000000000, -0.0000000000000000000, -0.0000000000000000000 ) ) ;
#6 = SURFACE_SIDE_STYLE ('',( #37 ) ) ;
#7 = EDGE_CURVE ( 'NONE', #207, #217, #64, .T. ) ;
#8 = VERTEX_POINT ( 'NONE', #149 ) ;
#9 = CARTESIAN_POINT ( 'NONE',  ( 0.5000000000000000000, 0.0000000000000000000, 0.0000000000000000000 ) ) ;
#10 = DIMENSIONAL_EXPONENTS ( 1.000000000000000000, 0.0000000000000000000, 0.0000000000000000000, 0.0000000000000000000, 0.0000000000000000000, 0.0000000000000000000, 0.0000000000000000000 ) ;
#11 = AXIS2_PLACEMENT_3D ( 'NONE', #202, #82, #119 ) ;
#12 = CIRCLE ( 'NONE', #133, 0.4350000000000000000 ) ;
#13 =( NAMED_UNIT ( * ) SI_UNIT ( $, .STERADIAN. ) SOLID_ANGLE_UNIT ( ) );
#14 = AXIS2_PLACEMENT_3D ( 'NONE', #75, #210, #152 ) ;
#15 = DIRECTION ( 'NONE',  ( 1.000000000000000000, 0.0000000000000000000, 0.0000000000000000000 ) ) ;
#16 = ORIENTED_EDGE ( 'NONE', *, *, #106, .F. ) ;
#17 = ORIENTED_EDGE ( 'NONE', *, *, #216, .F. ) ;
#18 = LINE ( 'NONE', #94, #215 ) ;
#19 = VERTEX_POINT ( 'NONE', #165 ) ;
#20 = CIRCLE ( 'NONE', #124, 0.3050000000000000500 ) ;
#21 = ADVANCED_FACE ( 'NONE', ( #175 ), #168, .F. ) ;
#22 = UNCERTAINTY_MEASURE_WITH_UNIT (LENGTH_MEASURE( 1.000000000000000100E-005 ), #76, 'distance_accuracy_value', 'NONE');
#23 = ORIENTED_EDGE ( 'NONE', *, *, #36, .F. ) ;
#24 = DIRECTION ( 'NONE',  ( 0.0000000000000000000, 0.0000000000000000000, -1.000000000000000000 ) ) ;
#25 = CYLINDRICAL_SURFACE ( 'NONE', #42, 0.4350000000000000000 ) ;
#26 = SURFACE_STYLE_USAGE ( .BOTH. , #6 ) ;
#27 = PRODUCT_DEFINITION_FORMATION_WITH_SPECIFIED_SOURCE ( 'ANY', '', #83, .NOT_KNOWN. ) ;
#28 = DIRECTION ( 'NONE',  ( 1.000000000000000000, 0.0000000000000000000, 0.0000000000000000000 ) ) ;
#29 = APPLICATION_CONTEXT ( 'automotive_design' ) ;
#30 = EDGE_LOOP ( 'NONE', ( #91, #141 ) ) ;
#31 = LINE ( 'NONE', #79, #203 ) ;
#32 = ORIENTED_EDGE ( 'NONE', *, *, #216, .T. ) ;
#33 = EDGE_CURVE ( 'NONE', #127, #207, #18, .T. ) ;
#34 = CIRCLE ( 'NONE', #73, 0.3050000000000000500 ) ;
#35 = APPLICATION_PROTOCOL_DEFINITION ( 'draft international standard', 'automotive_design', 1998, #84 ) ;
#36 = EDGE_CURVE ( 'NONE', #217, #207, #131, .T. ) ;
#37 = SURFACE_STYLE_FILL_AREA ( #46 ) ;
#38 = ORIENTED_EDGE ( 'NONE', *, *, #135, .T. ) ;
#39 = FACE_OUTER_BOUND ( 'NONE', #193, .T. ) ;
#40 = UNCERTAINTY_MEASURE_WITH_UNIT (LENGTH_MEASURE( 1.000000000000000100E-005 ), #174, 'distance_accuracy_value', 'NONE');
#41 = CARTESIAN_POINT ( 'NONE',  ( 0.5000000000000000000, 0.0000000000000000000, 0.4350000000000000000 ) ) ;
#42 = AXIS2_PLACEMENT_3D ( 'NONE', #112, #5, #58 ) ;
#43 = CARTESIAN_POINT ( 'NONE',  ( 0.0000000000000000000, 5.327213576290986400E-017, -0.4350000000000000000 ) ) ;
#44 = CARTESIAN_POINT ( 'NONE',  ( 0.5000000000000000000, 0.0000000000000000000, 0.0000000000000000000 ) ) ;
#45 = DIRECTION ( 'NONE',  ( -1.000000000000000000, -0.0000000000000000000, -0.0000000000000000000 ) ) ;
#46 = FILL_AREA_STYLE ('',( #111 ) ) ;
#47 = SURFACE_STYLE_FILL_AREA ( #196 ) ;
#48 = LINE ( 'NONE', #195, #205 ) ;
#49 = EDGE_LOOP ( 'NONE', ( #32, #2 ) ) ;
#50 = COLOUR_RGB ( '',0.6470588235294118000, 0.5176470588235293500, 0.0000000000000000000 ) ;
#51 = LINE ( 'NONE', #115, #125 ) ;
#52 = PRODUCT_RELATED_PRODUCT_CATEGORY ( 'part', '', ( #83 ) ) ;
#53 = UNCERTAINTY_MEASURE_WITH_UNIT (LENGTH_MEASURE( 1.000000000000000100E-005 ), #157, 'distance_accuracy_value', 'NONE');
#54 = ORIENTED_EDGE ( 'NONE', *, *, #7, .T. ) ;
#55 = ADVANCED_FACE ( 'NONE', ( #39 ), #123, .F. ) ;
#56 = ORIENTED_EDGE ( 'NONE', *, *, #159, .T. ) ;
#57 = DIRECTION ( 'NONE',  ( 1.000000000000000000, 0.0000000000000000000, 0.0000000000000000000 ) ) ;
#58 = DIRECTION ( 'NONE',  ( 0.0000000000000000000, 0.0000000000000000000, 1.000000000000000000 ) ) ;
#59 =( NAMED_UNIT ( * ) PLANE_ANGLE_UNIT ( ) SI_UNIT ( $, .RADIAN. ) );
#60 =( NAMED_UNIT ( * ) PLANE_ANGLE_UNIT ( ) SI_UNIT ( $, .RADIAN. ) );
#61 = CARTESIAN_POINT ( 'NONE',  ( 0.0000000000000000000, 0.0000000000000000000, 0.3050000000000000500 ) ) ;
#62 = PRESENTATION_LAYER_ASSIGNMENT (  '', '', ( #172 ) ) ;
#63 =( NAMED_UNIT ( * ) PLANE_ANGLE_UNIT ( ) SI_UNIT ( $, .RADIAN. ) );
#64 = CIRCLE ( 'NONE', #68, 0.4350000000000000000 ) ;
#65 = FACE_BOUND ( 'NONE', #49, .T. ) ;
#66 = CARTESIAN_POINT ( 'NONE',  ( 0.5000000000000000000, 0.0000000000000000000, 0.0000000000000000000 ) ) ;
#67 = CIRCLE ( 'NONE', #1, 0.3050000000000000500 ) ;
#68 = AXIS2_PLACEMENT_3D ( 'NONE', #147, #170, #194 ) ;
#69 = FACE_BOUND ( 'NONE', #30, .T. ) ;
#70 = ADVANCED_FACE ( 'NONE', ( #72 ), #25, .T. ) ;
#71 = ORIENTED_EDGE ( 'NONE', *, *, #136, .T. ) ;
#72 = FACE_OUTER_BOUND ( 'NONE', #173, .T. ) ;
#73 = AXIS2_PLACEMENT_3D ( 'NONE', #220, #15, #219 ) ;
#74 = FILL_AREA_STYLE_COLOUR ( '', #50 ) ;
#75 = CARTESIAN_POINT ( 'NONE',  ( 0.5000000000000000000, 0.0000000000000000000, 0.0000000000000000000 ) ) ;
#76 =( CONVERSION_BASED_UNIT ( 'INCH', #176 ) LENGTH_UNIT ( ) NAMED_UNIT ( #126 ) );
#77 = DIRECTION ( 'NONE',  ( 1.000000000000000000, 0.0000000000000000000, 0.0000000000000000000 ) ) ;
#78 = CARTESIAN_POINT ( 'NONE',  ( 0.0000000000000000000, 0.0000000000000000000, 0.4350000000000000000 ) ) ;
#79 = CARTESIAN_POINT ( 'NONE',  ( 0.5000000000000000000, 0.0000000000000000000, 0.3050000000000000500 ) ) ;
#80 = PRODUCT_DEFINITION_CONTEXT ( 'detailed design', #84, 'design' ) ;
#81 = VERTEX_POINT ( 'NONE', #100 ) ;
#82 = DIRECTION ( 'NONE',  ( 0.0000000000000000000, 0.0000000000000000000, 1.000000000000000000 ) ) ;
#83 = PRODUCT ( 'am-3336 Rocketbox Brass Output Spacer REV2', 'am-3336 Rocketbox Brass Output Spacer REV2', '', ( #187 ) ) ;
#84 = APPLICATION_CONTEXT ( 'automotive_design' ) ;
#85 = CLOSED_SHELL ( 'NONE', ( #21, #70, #108, #209, #145, #55 ) ) ;
#86 = CYLINDRICAL_SURFACE ( 'NONE', #142, 0.4350000000000000000 ) ;
#87 = ADVANCED_BREP_SHAPE_REPRESENTATION ( 'am-3336 Rocketbox Brass Output Spacer REV2', ( #167, #11 ), #189 ) ;
#88 = EDGE_LOOP ( 'NONE', ( #177, #23 ) ) ;
#89 =( GEOMETRIC_REPRESENTATION_CONTEXT ( 3 ) GLOBAL_UNCERTAINTY_ASSIGNED_CONTEXT ( ( #53 ) ) GLOBAL_UNIT_ASSIGNED_CONTEXT ( ( #157, #63, #13 ) ) REPRESENTATION_CONTEXT ( 'NONE', 'WORKASPACE' ) );
#90 = DIRECTION ( 'NONE',  ( 0.0000000000000000000, 0.0000000000000000000, -1.000000000000000000 ) ) ;
#91 = ORIENTED_EDGE ( 'NONE', *, *, #136, .F. ) ;
#92 = EDGE_LOOP ( 'NONE', ( #71, #56, #17, #221 ) ) ;
#93 = DIRECTION ( 'NONE',  ( 0.0000000000000000000, 0.0000000000000000000, 1.000000000000000000 ) ) ;
#94 = CARTESIAN_POINT ( 'NONE',  ( 0.5000000000000000000, 0.0000000000000000000, 0.4350000000000000000 ) ) ;
#95 = SURFACE_SIDE_STYLE ('',( #47 ) ) ;
#96 = ORIENTED_EDGE ( 'NONE', *, *, #159, .F. ) ;
#97 = AXIS2_PLACEMENT_3D ( 'NONE', #99, #57, #214 ) ;
#98 = CARTESIAN_POINT ( 'NONE',  ( 0.0000000000000000000, 0.0000000000000000000, 0.0000000000000000000 ) ) ;
#99 = CARTESIAN_POINT ( 'NONE',  ( 0.5000000000000000000, 0.0000000000000000000, 0.0000000000000000000 ) ) ;
#100 = CARTESIAN_POINT ( 'NONE',  ( 0.5000000000000000000, 0.0000000000000000000, 0.3050000000000000500 ) ) ;
#101 = ORIENTED_EDGE ( 'NONE', *, *, #36, .T. ) ;
#102 =( LENGTH_UNIT ( ) NAMED_UNIT ( * ) SI_UNIT ( $, .METRE. ) );
#103 = EDGE_CURVE ( 'NONE', #8, #105, #34, .T. ) ;
#104 = EDGE_LOOP ( 'NONE', ( #3, #140 ) ) ;
#105 = VERTEX_POINT ( 'NONE', #61 ) ;
#106 = EDGE_CURVE ( 'NONE', #19, #127, #222, .T. ) ;
#107 = AXIS2_PLACEMENT_3D ( 'NONE', #66, #204, #137 ) ;
#108 = ADVANCED_FACE ( 'NONE', ( #109, #69 ), #223, .T. ) ;
#109 = FACE_OUTER_BOUND ( 'NONE', #104, .T. ) ;
#110 = DIMENSIONAL_EXPONENTS ( 1.000000000000000000, 0.0000000000000000000, 0.0000000000000000000, 0.0000000000000000000, 0.0000000000000000000, 0.0000000000000000000, 0.0000000000000000000 ) ;
#111 = FILL_AREA_STYLE_COLOUR ( '', #188 ) ;
#112 = CARTESIAN_POINT ( 'NONE',  ( 0.5000000000000000000, 0.0000000000000000000, 0.0000000000000000000 ) ) ;
#113 = EDGE_LOOP ( 'NONE', ( #118, #122, #144, #54 ) ) ;
#114 =( GEOMETRIC_REPRESENTATION_CONTEXT ( 3 ) GLOBAL_UNCERTAINTY_ASSIGNED_CONTEXT ( ( #40 ) ) GLOBAL_UNIT_ASSIGNED_CONTEXT ( ( #174, #59, #153 ) ) REPRESENTATION_CONTEXT ( 'NONE', 'WORKASPACE' ) );
#115 = CARTESIAN_POINT ( 'NONE',  ( 0.5000000000000000000, 5.327213576290986400E-017, -0.4350000000000000000 ) ) ;
#116 = CARTESIAN_POINT ( 'NONE',  ( 0.0000000000000000000, 0.0000000000000000000, 0.0000000000000000000 ) ) ;
#117 = CARTESIAN_POINT ( 'NONE',  ( 0.5000000000000000000, 0.0000000000000000000, 0.0000000000000000000 ) ) ;
#118 = ORIENTED_EDGE ( 'NONE', *, *, #154, .F. ) ;
#119 = DIRECTION ( 'NONE',  ( 1.000000000000000000, 0.0000000000000000000, 0.0000000000000000000 ) ) ;
#120 = AXIS2_PLACEMENT_3D ( 'NONE', #116, #77, #211 ) ;
#121 = PRODUCT_DEFINITION_SHAPE ( 'NONE', 'NONE',  #143 ) ;
#122 = ORIENTED_EDGE ( 'NONE', *, *, #190, .F. ) ;
#123 = CYLINDRICAL_SURFACE ( 'NONE', #14, 0.3050000000000000500 ) ;
#124 = AXIS2_PLACEMENT_3D ( 'NONE', #98, #197, #148 ) ;
#125 = VECTOR ( 'NONE', #45, 39.37007874015748100 ) ;
#126 = DIMENSIONAL_EXPONENTS ( 1.000000000000000000, 0.0000000000000000000, 0.0000000000000000000, 0.0000000000000000000, 0.0000000000000000000, 0.0000000000000000000, 0.0000000000000000000 ) ;
#127 = VERTEX_POINT ( 'NONE', #41 ) ;
#128 = PLANE ( 'NONE',  #166 ) ;
#129 = DIRECTION ( 'NONE',  ( 1.000000000000000000, 0.0000000000000000000, 0.0000000000000000000 ) ) ;
#130 = DIRECTION ( 'NONE',  ( -1.000000000000000000, -0.0000000000000000000, -0.0000000000000000000 ) ) ;
#131 = CIRCLE ( 'NONE', #120, 0.4350000000000000000 ) ;
#132 = DIRECTION ( 'NONE',  ( 0.0000000000000000000, 0.0000000000000000000, -1.000000000000000000 ) ) ;
#133 = AXIS2_PLACEMENT_3D ( 'NONE', #9, #182, #213 ) ;
#134 = SURFACE_STYLE_USAGE ( .BOTH. , #95 ) ;
#135 = EDGE_CURVE ( 'NONE', #184, #81, #146, .T. ) ;
#136 = EDGE_CURVE ( 'NONE', #81, #184, #67, .T. ) ;
#137 = DIRECTION ( 'NONE',  ( 0.0000000000000000000, 0.0000000000000000000, -1.000000000000000000 ) ) ;
#138 = ORIENTED_EDGE ( 'NONE', *, *, #206, .T. ) ;
#139 = AXIS2_PLACEMENT_3D ( 'NONE', #183, #208, #93 ) ;
#140 = ORIENTED_EDGE ( 'NONE', *, *, #106, .T. ) ;
#141 = ORIENTED_EDGE ( 'NONE', *, *, #135, .F. ) ;
#142 = AXIS2_PLACEMENT_3D ( 'NONE', #44, #186, #155 ) ;
#143 = PRODUCT_DEFINITION ( 'UNKNOWN', '', #27, #80 ) ;
#144 = ORIENTED_EDGE ( 'NONE', *, *, #33, .T. ) ;
#145 = ADVANCED_FACE ( 'NONE', ( #178 ), #86, .T. ) ;
#146 = CIRCLE ( 'NONE', #97, 0.3050000000000000500 ) ;
#147 = CARTESIAN_POINT ( 'NONE',  ( 0.0000000000000000000, 0.0000000000000000000, 0.0000000000000000000 ) ) ;
#148 = DIRECTION ( 'NONE',  ( 0.0000000000000000000, 0.0000000000000000000, -1.000000000000000000 ) ) ;
#149 = CARTESIAN_POINT ( 'NONE',  ( 0.0000000000000000000, 3.735172737399427600E-017, -0.3050000000000000500 ) ) ;
#150 = STYLED_ITEM ( 'NONE', ( #158 ), #87 ) ;
#151 = ORIENTED_EDGE ( 'NONE', *, *, #154, .T. ) ;
#152 = DIRECTION ( 'NONE',  ( 0.0000000000000000000, 0.0000000000000000000, 1.000000000000000000 ) ) ;
#153 =( NAMED_UNIT ( * ) SI_UNIT ( $, .STERADIAN. ) SOLID_ANGLE_UNIT ( ) );
#154 = EDGE_CURVE ( 'NONE', #19, #217, #51, .T. ) ;
#155 = DIRECTION ( 'NONE',  ( 0.0000000000000000000, 0.0000000000000000000, 1.000000000000000000 ) ) ;
#156 = DIRECTION ( 'NONE',  ( -1.000000000000000000, -0.0000000000000000000, -0.0000000000000000000 ) ) ;
#157 =( CONVERSION_BASED_UNIT ( 'INCH', #218 ) LENGTH_UNIT ( ) NAMED_UNIT ( #10 ) );
#158 = PRESENTATION_STYLE_ASSIGNMENT (( #134 ) ) ;
#159 = EDGE_CURVE ( 'NONE', #184, #8, #48, .T. ) ;
#160 = CARTESIAN_POINT ( 'NONE',  ( 0.5000000000000000000, 0.0000000000000000000, 0.0000000000000000000 ) ) ;
#161 = MECHANICAL_DESIGN_GEOMETRIC_PRESENTATION_REPRESENTATION (  '', ( #150 ), #89 ) ;
#162 = PRESENTATION_LAYER_ASSIGNMENT (  '', '', ( #150 ) ) ;
#163 = FACE_OUTER_BOUND ( 'NONE', #88, .T. ) ;
#164 = DIRECTION ( 'NONE',  ( -1.000000000000000000, -0.0000000000000000000, -0.0000000000000000000 ) ) ;
#165 = CARTESIAN_POINT ( 'NONE',  ( 0.5000000000000000000, 5.327213576290986400E-017, -0.4350000000000000000 ) ) ;
#166 = AXIS2_PLACEMENT_3D ( 'NONE', #198, #28, #24 ) ;
#167 = MANIFOLD_SOLID_BREP ( 'Boss-Extrude1', #85 ) ;
#168 = CYLINDRICAL_SURFACE ( 'NONE', #139, 0.3050000000000000500 ) ;
#169 =( NAMED_UNIT ( * ) SI_UNIT ( $, .STERADIAN. ) SOLID_ANGLE_UNIT ( ) );
#170 = DIRECTION ( 'NONE',  ( 1.000000000000000000, 0.0000000000000000000, 0.0000000000000000000 ) ) ;
#171 =( LENGTH_UNIT ( ) NAMED_UNIT ( * ) SI_UNIT ( $, .METRE. ) );
#172 = STYLED_ITEM ( 'NONE', ( #180 ), #167 ) ;
#173 = EDGE_LOOP ( 'NONE', ( #16, #151, #101, #179 ) ) ;
#174 =( CONVERSION_BASED_UNIT ( 'INCH', #201 ) LENGTH_UNIT ( ) NAMED_UNIT ( #110 ) );
#175 = FACE_OUTER_BOUND ( 'NONE', #92, .T. ) ;
#176 = LENGTH_MEASURE_WITH_UNIT ( LENGTH_MEASURE( 0.02539999999999999900 ), #171 );
#177 = ORIENTED_EDGE ( 'NONE', *, *, #7, .F. ) ;
#178 = FACE_OUTER_BOUND ( 'NONE', #113, .T. ) ;
#179 = ORIENTED_EDGE ( 'NONE', *, *, #33, .F. ) ;
#180 = PRESENTATION_STYLE_ASSIGNMENT (( #26 ) ) ;
#181 = APPLICATION_PROTOCOL_DEFINITION ( 'draft international standard', 'automotive_design', 1998, #29 ) ;
#182 = DIRECTION ( 'NONE',  ( 1.000000000000000000, 0.0000000000000000000, 0.0000000000000000000 ) ) ;
#183 = CARTESIAN_POINT ( 'NONE',  ( 0.5000000000000000000, 0.0000000000000000000, 0.0000000000000000000 ) ) ;
#184 = VERTEX_POINT ( 'NONE', #185 ) ;
#185 = CARTESIAN_POINT ( 'NONE',  ( 0.5000000000000000000, 3.735172737399427600E-017, -0.3050000000000000500 ) ) ;
#186 = DIRECTION ( 'NONE',  ( -1.000000000000000000, -0.0000000000000000000, -0.0000000000000000000 ) ) ;
#187 = PRODUCT_CONTEXT ( 'NONE', #29, 'mechanical' ) ;
#188 = COLOUR_RGB ( '',0.6470588235294118000, 0.5176470588235293500, 0.0000000000000000000 ) ;
#189 =( GEOMETRIC_REPRESENTATION_CONTEXT ( 3 ) GLOBAL_UNCERTAINTY_ASSIGNED_CONTEXT ( ( #22 ) ) GLOBAL_UNIT_ASSIGNED_CONTEXT ( ( #76, #60, #169 ) ) REPRESENTATION_CONTEXT ( 'NONE', 'WORKASPACE' ) );
#190 = EDGE_CURVE ( 'NONE', #127, #19, #12, .T. ) ;
#191 = DIRECTION ( 'NONE',  ( 1.000000000000000000, 0.0000000000000000000, 0.0000000000000000000 ) ) ;
#192 = MECHANICAL_DESIGN_GEOMETRIC_PRESENTATION_REPRESENTATION (  '', ( #172 ), #114 ) ;
#193 = EDGE_LOOP ( 'NONE', ( #96, #38, #138, #200 ) ) ;
#194 = DIRECTION ( 'NONE',  ( 0.0000000000000000000, 0.0000000000000000000, -1.000000000000000000 ) ) ;
#195 = CARTESIAN_POINT ( 'NONE',  ( 0.5000000000000000000, 3.735172737399427600E-017, -0.3050000000000000500 ) ) ;
#196 = FILL_AREA_STYLE ('',( #74 ) ) ;
#197 = DIRECTION ( 'NONE',  ( 1.000000000000000000, 0.0000000000000000000, 0.0000000000000000000 ) ) ;
#198 = CARTESIAN_POINT ( 'NONE',  ( 0.0000000000000000000, 0.0000000000000000000, 0.0000000000000000000 ) ) ;
#199 = SHAPE_DEFINITION_REPRESENTATION ( #121, #87 ) ;
#200 = ORIENTED_EDGE ( 'NONE', *, *, #103, .F. ) ;
#201 = LENGTH_MEASURE_WITH_UNIT ( LENGTH_MEASURE( 0.02539999999999999900 ), #4 );
#202 = CARTESIAN_POINT ( 'NONE',  ( 0.0000000000000000000, 0.0000000000000000000, 0.0000000000000000000 ) ) ;
#203 = VECTOR ( 'NONE', #156, 39.37007874015748100 ) ;
#204 = DIRECTION ( 'NONE',  ( 1.000000000000000000, 0.0000000000000000000, 0.0000000000000000000 ) ) ;
#205 = VECTOR ( 'NONE', #130, 39.37007874015748100 ) ;
#206 = EDGE_CURVE ( 'NONE', #81, #105, #31, .T. ) ;
#207 = VERTEX_POINT ( 'NONE', #78 ) ;
#208 = DIRECTION ( 'NONE',  ( -1.000000000000000000, -0.0000000000000000000, -0.0000000000000000000 ) ) ;
#209 = ADVANCED_FACE ( 'NONE', ( #163, #65 ), #128, .F. ) ;
#210 = DIRECTION ( 'NONE',  ( -1.000000000000000000, -0.0000000000000000000, -0.0000000000000000000 ) ) ;
#211 = DIRECTION ( 'NONE',  ( 0.0000000000000000000, 0.0000000000000000000, -1.000000000000000000 ) ) ;
#212 = AXIS2_PLACEMENT_3D ( 'NONE', #160, #191, #90 ) ;
#213 = DIRECTION ( 'NONE',  ( 0.0000000000000000000, 0.0000000000000000000, -1.000000000000000000 ) ) ;
#214 = DIRECTION ( 'NONE',  ( 0.0000000000000000000, 0.0000000000000000000, -1.000000000000000000 ) ) ;
#215 = VECTOR ( 'NONE', #164, 39.37007874015748100 ) ;
#216 = EDGE_CURVE ( 'NONE', #105, #8, #20, .T. ) ;
#217 = VERTEX_POINT ( 'NONE', #43 ) ;
#218 = LENGTH_MEASURE_WITH_UNIT ( LENGTH_MEASURE( 0.02539999999999999900 ), #102 );
#219 = DIRECTION ( 'NONE',  ( 0.0000000000000000000, 0.0000000000000000000, -1.000000000000000000 ) ) ;
#220 = CARTESIAN_POINT ( 'NONE',  ( 0.0000000000000000000, 0.0000000000000000000, 0.0000000000000000000 ) ) ;
#221 = ORIENTED_EDGE ( 'NONE', *, *, #206, .F. ) ;
#222 = CIRCLE ( 'NONE', #107, 0.4350000000000000000 ) ;
#223 = PLANE ( 'NONE',  #212 ) ;
ENDSEC;
END-ISO-10303-21;
