ISO-10303-21;
HEADER;
FILE_DESCRIPTION (( 'STEP AP214' ),
    '1' );
FILE_NAME ('am-4280 Frame - Front to Back.STEP',
    '2020-05-08T20:10:05',
    ( '' ),
    ( '' ),
    'SwSTEP 2.0',
    'SolidWorks 2019',
    '' );
FILE_SCHEMA (( 'AUTOMOTIVE_DESIGN' ));
ENDSEC;

DATA;
#1 = EDGE_CURVE ( 'NONE', #37, #32, #25, .T. ) ;
#2 = ADVANCED_FACE ( 'NONE', ( #75 ), #76, .T. ) ;
#3 = PRODUCT_DEFINITION_SHAPE ( 'NONE', 'NONE',  #184 ) ;
#4 = CIRCLE ( 'NONE', #186, 0.4249999999999999889 ) ;
#5 = ADVANCED_BREP_SHAPE_REPRESENTATION ( 'am-4280 Frame - Front to Back', ( #27, #11 ), #214 ) ;
#6 = AXIS2_PLACEMENT_3D ( 'NONE', #141, #143, #144 ) ;
#7 = EDGE_CURVE ( 'NONE', #68, #61, #200, .T. ) ;
#8 = CIRCLE ( 'NONE', #24, 0.4249999999999999889 ) ;
#9 = DIMENSIONAL_EXPONENTS ( 1.000000000000000000, 0.0000000000000000000, 0.0000000000000000000, 0.0000000000000000000, 0.0000000000000000000, 0.0000000000000000000, 0.0000000000000000000 ) ;
#10 = AXIS2_PLACEMENT_3D ( 'NONE', #150, #151, #152 ) ;
#11 = AXIS2_PLACEMENT_3D ( 'NONE', #206, #208, #209 ) ;
#12 = EDGE_CURVE ( 'NONE', #37, #44, #84, .T. ) ;
#13 = AXIS2_PLACEMENT_3D ( 'NONE', #163, #164, #165 ) ;
#14 = AXIS2_PLACEMENT_3D ( 'NONE', #106, #107, #108 ) ;
#15 = EDGE_CURVE ( 'NONE', #60, #51, #162, .T. ) ;
#16 = ADVANCED_FACE ( 'NONE', ( #92 ), #93, .F. ) ;
#17 = EDGE_CURVE ( 'NONE', #61, #60, #97, .T. ) ;
#18 = EDGE_CURVE ( 'NONE', #61, #68, #8, .T. ) ;
#19 = AXIS2_PLACEMENT_3D ( 'NONE', #87, #88, #91 ) ;
#20 = ADVANCED_FACE ( 'NONE', ( #104 ), #105, .T. ) ;
#21 = DIMENSIONAL_EXPONENTS ( 1.000000000000000000, 0.0000000000000000000, 0.0000000000000000000, 0.0000000000000000000, 0.0000000000000000000, 0.0000000000000000000, 0.0000000000000000000 ) ;
#22 = APPLICATION_CONTEXT ( 'automotive_design' ) ;
#23 = PRESENTATION_LAYER_ASSIGNMENT (  '', '', ( #169 ) ) ;
#24 = AXIS2_PLACEMENT_3D ( 'NONE', #100, #102, #103 ) ;
#25 = CIRCLE ( 'NONE', #222, 0.5250000000000000222 ) ;
#26 = VECTOR ( 'NONE', #86, 39.37007874015748143 ) ;
#27 = MANIFOLD_SOLID_BREP ( 'Boss-Extrude1', #194 ) ;
#28 = ORIENTED_EDGE ( 'NONE', *, *, #7, .F. ) ;
#29 = ORIENTED_EDGE ( 'NONE', *, *, #1, .T. ) ;
#30 = EDGE_LOOP ( 'NONE', ( #47, #35, #49, #50 ) ) ;
#31 = EDGE_LOOP ( 'NONE', ( #29, #34 ) ) ;
#32 = VERTEX_POINT ( 'NONE', #122 ) ;
#33 = ORIENTED_EDGE ( 'NONE', *, *, #213, .T. ) ;
#34 = ORIENTED_EDGE ( 'NONE', *, *, #66, .T. ) ;
#35 = ORIENTED_EDGE ( 'NONE', *, *, #7, .T. ) ;
#36 = ORIENTED_EDGE ( 'NONE', *, *, #15, .F. ) ;
#37 = VERTEX_POINT ( 'NONE', #109 ) ;
#38 = EDGE_LOOP ( 'NONE', ( #43, #41, #40, #42 ) ) ;
#39 = ORIENTED_EDGE ( 'NONE', *, *, #54, .T. ) ;
#40 = ORIENTED_EDGE ( 'NONE', *, *, #12, .T. ) ;
#41 = ORIENTED_EDGE ( 'NONE', *, *, #1, .F. ) ;
#42 = ORIENTED_EDGE ( 'NONE', *, *, #89, .T. ) ;
#43 = ORIENTED_EDGE ( 'NONE', *, *, #176, .F. ) ;
#44 = VERTEX_POINT ( 'NONE', #124 ) ;
#45 = PRODUCT_DEFINITION_CONTEXT ( 'detailed design', #136, 'design' ) ;
#46 = ORIENTED_EDGE ( 'NONE', *, *, #17, .F. ) ;
#47 = ORIENTED_EDGE ( 'NONE', *, *, #54, .F. ) ;
#48 = ORIENTED_EDGE ( 'NONE', *, *, #191, .T. ) ;
#49 = ORIENTED_EDGE ( 'NONE', *, *, #17, .T. ) ;
#50 = ORIENTED_EDGE ( 'NONE', *, *, #213, .F. ) ;
#51 = VERTEX_POINT ( 'NONE', #125 ) ;
#52 = VERTEX_POINT ( 'NONE', #126 ) ;
#53 = ORIENTED_EDGE ( 'NONE', *, *, #176, .T. ) ;
#54 = EDGE_CURVE ( 'NONE', #68, #51, #127, .T. ) ;
#55 = ORIENTED_EDGE ( 'NONE', *, *, #18, .T. ) ;
#56 = PRESENTATION_LAYER_ASSIGNMENT (  '', '', ( #179 ) ) ;
#57 = ORIENTED_EDGE ( 'NONE', *, *, #15, .T. ) ;
#58 = ORIENTED_EDGE ( 'NONE', *, *, #66, .F. ) ;
#59 = ORIENTED_EDGE ( 'NONE', *, *, #18, .F. ) ;
#60 = VERTEX_POINT ( 'NONE', #130 ) ;
#61 = VERTEX_POINT ( 'NONE', #131 ) ;
#62 = ORIENTED_EDGE ( 'NONE', *, *, #191, .F. ) ;
#63 = EDGE_LOOP ( 'NONE', ( #58, #53, #48, #65 ) ) ;
#64 = EDGE_LOOP ( 'NONE', ( #70, #62 ) ) ;
#65 = ORIENTED_EDGE ( 'NONE', *, *, #12, .F. ) ;
#66 = EDGE_CURVE ( 'NONE', #32, #37, #147, .T. ) ;
#67 = EDGE_LOOP ( 'NONE', ( #59, #28 ) ) ;
#68 = VERTEX_POINT ( 'NONE', #135 ) ;
#69 = EDGE_LOOP ( 'NONE', ( #57, #33 ) ) ;
#70 = ORIENTED_EDGE ( 'NONE', *, *, #89, .F. ) ;
#71 = EDGE_LOOP ( 'NONE', ( #55, #39, #36, #46 ) ) ;
#72 = CARTESIAN_POINT ( 'NONE',  ( 0.0000000000000000000, 4.250000000000000000, 0.0000000000000000000 ) ) ;
#73 = DIRECTION ( 'NONE',  ( 0.0000000000000000000, 1.000000000000000000, 0.0000000000000000000 ) ) ;
#74 = DIRECTION ( 'NONE',  ( 0.0000000000000000000, 0.0000000000000000000, 1.000000000000000000 ) ) ;
#75 = FACE_OUTER_BOUND ( 'NONE', #63, .T. ) ;
#76 = CYLINDRICAL_SURFACE ( 'NONE', #218, 0.5250000000000000222 ) ;
#77 = CARTESIAN_POINT ( 'NONE',  ( 0.0000000000000000000, 4.250000000000000000, 0.0000000000000000000 ) ) ;
#78 = DIRECTION ( 'NONE',  ( -0.0000000000000000000, -1.000000000000000000, -0.0000000000000000000 ) ) ;
#79 = DIRECTION ( 'NONE',  ( 0.0000000000000000000, 0.0000000000000000000, -1.000000000000000000 ) ) ;
#80 = CIRCLE ( 'NONE', #6, 0.5250000000000000222 ) ;
#81 = CARTESIAN_POINT ( 'NONE',  ( 0.0000000000000000000, 4.250000000000000000, 0.0000000000000000000 ) ) ;
#82 = DIRECTION ( 'NONE',  ( 0.0000000000000000000, 1.000000000000000000, 0.0000000000000000000 ) ) ;
#83 = DIRECTION ( 'NONE',  ( 0.0000000000000000000, 0.0000000000000000000, 1.000000000000000000 ) ) ;
#84 = LINE ( 'NONE', #85, #26 ) ;
#85 = CARTESIAN_POINT ( 'NONE',  ( 0.0000000000000000000, 4.250000000000000000, -0.5250000000000000222 ) ) ;
#86 = DIRECTION ( 'NONE',  ( -0.0000000000000000000, -1.000000000000000000, -0.0000000000000000000 ) ) ;
#87 = CARTESIAN_POINT ( 'NONE',  ( 0.0000000000000000000, -4.250000000000000000, 0.0000000000000000000 ) ) ;
#88 = DIRECTION ( 'NONE',  ( 0.0000000000000000000, 1.000000000000000000, 0.0000000000000000000 ) ) ;
#89 = EDGE_CURVE ( 'NONE', #44, #52, #80, .T. ) ;
#90 = ADVANCED_FACE ( 'NONE', ( #145, #146 ), #149, .F. ) ;
#91 = DIRECTION ( 'NONE',  ( 0.0000000000000000000, 0.0000000000000000000, 1.000000000000000000 ) ) ;
#92 = FACE_OUTER_BOUND ( 'NONE', #71, .T. ) ;
#93 = CYLINDRICAL_SURFACE ( 'NONE', #207, 0.4249999999999999889 ) ;
#94 = CARTESIAN_POINT ( 'NONE',  ( 0.0000000000000000000, 4.250000000000000000, 0.0000000000000000000 ) ) ;
#95 = DIRECTION ( 'NONE',  ( -0.0000000000000000000, -1.000000000000000000, -0.0000000000000000000 ) ) ;
#96 = DIRECTION ( 'NONE',  ( 0.0000000000000000000, 0.0000000000000000000, -1.000000000000000000 ) ) ;
#97 = LINE ( 'NONE', #98, #205 ) ;
#98 = CARTESIAN_POINT ( 'NONE',  ( 0.0000000000000000000, 4.250000000000000000, -0.4249999999999999889 ) ) ;
#99 = DIRECTION ( 'NONE',  ( -0.0000000000000000000, -1.000000000000000000, -0.0000000000000000000 ) ) ;
#100 = CARTESIAN_POINT ( 'NONE',  ( 0.0000000000000000000, 4.250000000000000000, 0.0000000000000000000 ) ) ;
#101 =( GEOMETRIC_REPRESENTATION_CONTEXT ( 3 ) GLOBAL_UNCERTAINTY_ASSIGNED_CONTEXT ( ( #217 ) ) GLOBAL_UNIT_ASSIGNED_CONTEXT ( ( #118, #120, #121 ) ) REPRESENTATION_CONTEXT ( 'NONE', 'WORKASPACE' ) );
#102 = DIRECTION ( 'NONE',  ( 0.0000000000000000000, 1.000000000000000000, 0.0000000000000000000 ) ) ;
#103 = DIRECTION ( 'NONE',  ( 0.0000000000000000000, 0.0000000000000000000, 1.000000000000000000 ) ) ;
#104 = FACE_OUTER_BOUND ( 'NONE', #38, .T. ) ;
#105 = CYLINDRICAL_SURFACE ( 'NONE', #14, 0.5250000000000000222 ) ;
#106 = CARTESIAN_POINT ( 'NONE',  ( 0.0000000000000000000, 4.250000000000000000, 0.0000000000000000000 ) ) ;
#107 = DIRECTION ( 'NONE',  ( -0.0000000000000000000, -1.000000000000000000, -0.0000000000000000000 ) ) ;
#108 = DIRECTION ( 'NONE',  ( 0.0000000000000000000, 0.0000000000000000000, -1.000000000000000000 ) ) ;
#109 = CARTESIAN_POINT ( 'NONE',  ( 0.0000000000000000000, 4.250000000000000000, -0.5250000000000000222 ) ) ;
#110 = FILL_AREA_STYLE_COLOUR ( '', #216 ) ;
#111 = FILL_AREA_STYLE ('',( #110 ) ) ;
#112 = SURFACE_STYLE_FILL_AREA ( #111 ) ;
#113 = SURFACE_SIDE_STYLE ('',( #112 ) ) ;
#114 = SURFACE_STYLE_USAGE ( .BOTH. , #113 ) ;
#115 = PRESENTATION_STYLE_ASSIGNMENT (( #114 ) ) ;
#116 =( LENGTH_UNIT ( ) NAMED_UNIT ( * ) SI_UNIT ( $, .METRE. ) );
#117 = LENGTH_MEASURE_WITH_UNIT ( LENGTH_MEASURE( 0.02539999999999999897 ), #116 );
#118 =( CONVERSION_BASED_UNIT ( 'INCH', #117 ) LENGTH_UNIT ( ) NAMED_UNIT ( #9 ) );
#119 = ADVANCED_FACE ( 'NONE', ( #153, #154 ), #155, .T. ) ;
#120 =( NAMED_UNIT ( * ) PLANE_ANGLE_UNIT ( ) SI_UNIT ( $, .RADIAN. ) );
#121 =( NAMED_UNIT ( * ) SI_UNIT ( $, .STERADIAN. ) SOLID_ANGLE_UNIT ( ) );
#122 = CARTESIAN_POINT ( 'NONE',  ( 6.429395695523603660E-17, 4.250000000000000000, 0.5250000000000000222 ) ) ;
#123 = MECHANICAL_DESIGN_GEOMETRIC_PRESENTATION_REPRESENTATION (  '', ( #179 ), #142 ) ;
#124 = CARTESIAN_POINT ( 'NONE',  ( 0.0000000000000000000, -4.250000000000000000, -0.5250000000000000222 ) ) ;
#125 = CARTESIAN_POINT ( 'NONE',  ( 5.204748896376250699E-17, -4.250000000000000000, 0.4249999999999999889 ) ) ;
#126 = CARTESIAN_POINT ( 'NONE',  ( 6.429395695523603660E-17, -4.250000000000000000, 0.5250000000000000222 ) ) ;
#127 = LINE ( 'NONE', #128, #187 ) ;
#128 = CARTESIAN_POINT ( 'NONE',  ( 5.204748896376250699E-17, 4.250000000000000000, 0.4249999999999999889 ) ) ;
#129 = DIRECTION ( 'NONE',  ( -0.0000000000000000000, -1.000000000000000000, -0.0000000000000000000 ) ) ;
#130 = CARTESIAN_POINT ( 'NONE',  ( 0.0000000000000000000, -4.250000000000000000, -0.4249999999999999889 ) ) ;
#131 = CARTESIAN_POINT ( 'NONE',  ( 0.0000000000000000000, 4.250000000000000000, -0.4249999999999999889 ) ) ;
#132 = CARTESIAN_POINT ( 'NONE',  ( 0.0000000000000000000, 4.250000000000000000, 0.0000000000000000000 ) ) ;
#133 = DIRECTION ( 'NONE',  ( 0.0000000000000000000, 1.000000000000000000, 0.0000000000000000000 ) ) ;
#134 = DIRECTION ( 'NONE',  ( 0.0000000000000000000, 0.0000000000000000000, 1.000000000000000000 ) ) ;
#135 = CARTESIAN_POINT ( 'NONE',  ( 5.204748896376250699E-17, 4.250000000000000000, 0.4249999999999999889 ) ) ;
#136 = APPLICATION_CONTEXT ( 'automotive_design' ) ;
#137 = UNCERTAINTY_MEASURE_WITH_UNIT (LENGTH_MEASURE( 1.000000000000000082E-05 ), #202, 'distance_accuracy_value', 'NONE');
#138 = PRODUCT_DEFINITION_FORMATION_WITH_SPECIFIED_SOURCE ( 'ANY', '', #220, .NOT_KNOWN. ) ;
#139 = VECTOR ( 'NONE', #161, 39.37007874015748143 ) ;
#140 = AXIS2_PLACEMENT_3D ( 'NONE', #132, #133, #134 ) ;
#141 = CARTESIAN_POINT ( 'NONE',  ( 0.0000000000000000000, -4.250000000000000000, 0.0000000000000000000 ) ) ;
#142 =( GEOMETRIC_REPRESENTATION_CONTEXT ( 3 ) GLOBAL_UNCERTAINTY_ASSIGNED_CONTEXT ( ( #137 ) ) GLOBAL_UNIT_ASSIGNED_CONTEXT ( ( #202, #203, #204 ) ) REPRESENTATION_CONTEXT ( 'NONE', 'WORKASPACE' ) );
#143 = DIRECTION ( 'NONE',  ( 0.0000000000000000000, 1.000000000000000000, 0.0000000000000000000 ) ) ;
#144 = DIRECTION ( 'NONE',  ( 0.0000000000000000000, 0.0000000000000000000, 1.000000000000000000 ) ) ;
#145 = FACE_OUTER_BOUND ( 'NONE', #64, .T. ) ;
#146 = FACE_BOUND ( 'NONE', #69, .T. ) ;
#147 = CIRCLE ( 'NONE', #140, 0.5250000000000000222 ) ;
#148 = UNCERTAINTY_MEASURE_WITH_UNIT (LENGTH_MEASURE( 1.000000000000000082E-05 ), #181, 'distance_accuracy_value', 'NONE');
#149 = PLANE ( 'NONE',  #10 ) ;
#150 = CARTESIAN_POINT ( 'NONE',  ( 0.0000000000000000000, -4.250000000000000000, 0.0000000000000000000 ) ) ;
#151 = DIRECTION ( 'NONE',  ( 0.0000000000000000000, 1.000000000000000000, 0.0000000000000000000 ) ) ;
#152 = DIRECTION ( 'NONE',  ( 0.0000000000000000000, -0.0000000000000000000, 1.000000000000000000 ) ) ;
#153 = FACE_OUTER_BOUND ( 'NONE', #31, .T. ) ;
#154 = FACE_BOUND ( 'NONE', #67, .T. ) ;
#155 = PLANE ( 'NONE',  #215 ) ;
#156 = CARTESIAN_POINT ( 'NONE',  ( 0.0000000000000000000, 4.250000000000000000, 0.0000000000000000000 ) ) ;
#157 = DIRECTION ( 'NONE',  ( 0.0000000000000000000, 1.000000000000000000, 0.0000000000000000000 ) ) ;
#158 = DIRECTION ( 'NONE',  ( 0.0000000000000000000, -0.0000000000000000000, 1.000000000000000000 ) ) ;
#159 = LINE ( 'NONE', #160, #139 ) ;
#160 = CARTESIAN_POINT ( 'NONE',  ( 6.429395695523603660E-17, 4.250000000000000000, 0.5250000000000000222 ) ) ;
#161 = DIRECTION ( 'NONE',  ( -0.0000000000000000000, -1.000000000000000000, -0.0000000000000000000 ) ) ;
#162 = CIRCLE ( 'NONE', #19, 0.4249999999999999889 ) ;
#163 = CARTESIAN_POINT ( 'NONE',  ( 0.0000000000000000000, -4.250000000000000000, 0.0000000000000000000 ) ) ;
#164 = DIRECTION ( 'NONE',  ( 0.0000000000000000000, 1.000000000000000000, 0.0000000000000000000 ) ) ;
#165 = DIRECTION ( 'NONE',  ( 0.0000000000000000000, 0.0000000000000000000, 1.000000000000000000 ) ) ;
#166 = CARTESIAN_POINT ( 'NONE',  ( 0.0000000000000000000, -4.250000000000000000, 0.0000000000000000000 ) ) ;
#167 = AXIS2_PLACEMENT_3D ( 'NONE', #81, #82, #83 ) ;
#168 = DIRECTION ( 'NONE',  ( 0.0000000000000000000, 1.000000000000000000, 0.0000000000000000000 ) ) ;
#169 = STYLED_ITEM ( 'NONE', ( #115 ), #27 ) ;
#170 = DIRECTION ( 'NONE',  ( 0.0000000000000000000, 0.0000000000000000000, 1.000000000000000000 ) ) ;
#171 = FACE_OUTER_BOUND ( 'NONE', #30, .T. ) ;
#172 = CYLINDRICAL_SURFACE ( 'NONE', #219, 0.4249999999999999889 ) ;
#173 = CARTESIAN_POINT ( 'NONE',  ( 0.0000000000000000000, 4.250000000000000000, 0.0000000000000000000 ) ) ;
#174 = DIRECTION ( 'NONE',  ( -0.0000000000000000000, -1.000000000000000000, -0.0000000000000000000 ) ) ;
#175 = DIRECTION ( 'NONE',  ( 0.0000000000000000000, 0.0000000000000000000, -1.000000000000000000 ) ) ;
#176 = EDGE_CURVE ( 'NONE', #32, #52, #159, .T. ) ;
#177 =( LENGTH_UNIT ( ) NAMED_UNIT ( * ) SI_UNIT ( $, .METRE. ) );
#178 = COLOUR_RGB ( '',0.2980392156862745057, 0.2980392156862745057, 0.2980392156862745057 ) ;
#179 = STYLED_ITEM ( 'NONE', ( #197 ), #5 ) ;
#180 = LENGTH_MEASURE_WITH_UNIT ( LENGTH_MEASURE( 0.02539999999999999897 ), #177 );
#181 =( CONVERSION_BASED_UNIT ( 'INCH', #180 ) LENGTH_UNIT ( ) NAMED_UNIT ( #21 ) );
#182 =( NAMED_UNIT ( * ) PLANE_ANGLE_UNIT ( ) SI_UNIT ( $, .RADIAN. ) );
#183 =( NAMED_UNIT ( * ) SI_UNIT ( $, .STERADIAN. ) SOLID_ANGLE_UNIT ( ) );
#184 = PRODUCT_DEFINITION ( 'UNKNOWN', '', #138, #45 ) ;
#185 = DIMENSIONAL_EXPONENTS ( 1.000000000000000000, 0.0000000000000000000, 0.0000000000000000000, 0.0000000000000000000, 0.0000000000000000000, 0.0000000000000000000, 0.0000000000000000000 ) ;
#186 = AXIS2_PLACEMENT_3D ( 'NONE', #166, #168, #170 ) ;
#187 = VECTOR ( 'NONE', #129, 39.37007874015748143 ) ;
#188 = APPLICATION_PROTOCOL_DEFINITION ( 'draft international standard', 'automotive_design', 1998, #22 ) ;
#189 = FILL_AREA_STYLE_COLOUR ( '', #178 ) ;
#190 = FILL_AREA_STYLE ('',( #189 ) ) ;
#191 = EDGE_CURVE ( 'NONE', #52, #44, #221, .T. ) ;
#192 = SURFACE_STYLE_FILL_AREA ( #190 ) ;
#193 = PRODUCT_RELATED_PRODUCT_CATEGORY ( 'part', '', ( #220 ) ) ;
#194 = CLOSED_SHELL ( 'NONE', ( #16, #2, #119, #90, #20, #223 ) ) ;
#195 = SURFACE_SIDE_STYLE ('',( #192 ) ) ;
#196 = SURFACE_STYLE_USAGE ( .BOTH. , #195 ) ;
#197 = PRESENTATION_STYLE_ASSIGNMENT (( #196 ) ) ;
#198 = MECHANICAL_DESIGN_GEOMETRIC_PRESENTATION_REPRESENTATION (  '', ( #169 ), #101 ) ;
#199 =( LENGTH_UNIT ( ) NAMED_UNIT ( * ) SI_UNIT ( $, .METRE. ) );
#200 = CIRCLE ( 'NONE', #167, 0.4249999999999999889 ) ;
#201 = LENGTH_MEASURE_WITH_UNIT ( LENGTH_MEASURE( 0.02539999999999999897 ), #199 );
#202 =( CONVERSION_BASED_UNIT ( 'INCH', #201 ) LENGTH_UNIT ( ) NAMED_UNIT ( #185 ) );
#203 =( NAMED_UNIT ( * ) PLANE_ANGLE_UNIT ( ) SI_UNIT ( $, .RADIAN. ) );
#204 =( NAMED_UNIT ( * ) SI_UNIT ( $, .STERADIAN. ) SOLID_ANGLE_UNIT ( ) );
#205 = VECTOR ( 'NONE', #99, 39.37007874015748143 ) ;
#206 = CARTESIAN_POINT ( 'NONE',  ( 0.0000000000000000000, 0.0000000000000000000, 0.0000000000000000000 ) ) ;
#207 = AXIS2_PLACEMENT_3D ( 'NONE', #94, #95, #96 ) ;
#208 = DIRECTION ( 'NONE',  ( 0.0000000000000000000, 0.0000000000000000000, 1.000000000000000000 ) ) ;
#209 = DIRECTION ( 'NONE',  ( 1.000000000000000000, 0.0000000000000000000, 0.0000000000000000000 ) ) ;
#210 = PRODUCT_CONTEXT ( 'NONE', #22, 'mechanical' ) ;
#211 = APPLICATION_PROTOCOL_DEFINITION ( 'draft international standard', 'automotive_design', 1998, #136 ) ;
#212 = SHAPE_DEFINITION_REPRESENTATION ( #3, #5 ) ;
#213 = EDGE_CURVE ( 'NONE', #51, #60, #4, .T. ) ;
#214 =( GEOMETRIC_REPRESENTATION_CONTEXT ( 3 ) GLOBAL_UNCERTAINTY_ASSIGNED_CONTEXT ( ( #148 ) ) GLOBAL_UNIT_ASSIGNED_CONTEXT ( ( #181, #182, #183 ) ) REPRESENTATION_CONTEXT ( 'NONE', 'WORKASPACE' ) );
#215 = AXIS2_PLACEMENT_3D ( 'NONE', #156, #157, #158 ) ;
#216 = COLOUR_RGB ( '',0.2980392156862745057, 0.2980392156862745057, 0.2980392156862745057 ) ;
#217 = UNCERTAINTY_MEASURE_WITH_UNIT (LENGTH_MEASURE( 1.000000000000000082E-05 ), #118, 'distance_accuracy_value', 'NONE');
#218 = AXIS2_PLACEMENT_3D ( 'NONE', #77, #78, #79 ) ;
#219 = AXIS2_PLACEMENT_3D ( 'NONE', #173, #174, #175 ) ;
#220 = PRODUCT ( 'am-4280 Frame - Front to Back', 'am-4280 Frame - Front to Back', '', ( #210 ) ) ;
#221 = CIRCLE ( 'NONE', #13, 0.5250000000000000222 ) ;
#222 = AXIS2_PLACEMENT_3D ( 'NONE', #72, #73, #74 ) ;
#223 = ADVANCED_FACE ( 'NONE', ( #171 ), #172, .F. ) ;
ENDSEC;
END-ISO-10303-21;
