ISO-10303-21;
HEADER;
FILE_DESCRIPTION (( 'STEP AP214' ),
    '1' );
FILE_NAME ('am-4279 Frame - Side to Side.STEP',
    '2020-05-08T20:11:39',
    ( '' ),
    ( '' ),
    'SwSTEP 2.0',
    'SolidWorks 2019',
    '' );
FILE_SCHEMA (( 'AUTOMOTIVE_DESIGN' ));
ENDSEC;

DATA;
#1 = VECTOR ( 'NONE', #68, 39.37007874015748143 ) ;
#2 = CARTESIAN_POINT ( 'NONE',  ( 0.0000000000000000000, -10.43750000000000000, -0.4249999999999999889 ) ) ;
#3 = ORIENTED_EDGE ( 'NONE', *, *, #207, .F. ) ;
#4 = EDGE_CURVE ( 'NONE', #190, #49, #180, .T. ) ;
#5 = ORIENTED_EDGE ( 'NONE', *, *, #4, .F. ) ;
#6 = ADVANCED_FACE ( 'NONE', ( #51 ), #154, .F. ) ;
#7 =( GEOMETRIC_REPRESENTATION_CONTEXT ( 3 ) GLOBAL_UNCERTAINTY_ASSIGNED_CONTEXT ( ( #187 ) ) GLOBAL_UNIT_ASSIGNED_CONTEXT ( ( #203, #201, #198 ) ) REPRESENTATION_CONTEXT ( 'NONE', 'WORKASPACE' ) );
#8 = EDGE_CURVE ( 'NONE', #80, #188, #137, .T. ) ;
#9 = FACE_BOUND ( 'NONE', #95, .T. ) ;
#10 = AXIS2_PLACEMENT_3D ( 'NONE', #54, #53, #149 ) ;
#11 = STYLED_ITEM ( 'NONE', ( #210 ), #108 ) ;
#12 = AXIS2_PLACEMENT_3D ( 'NONE', #222, #132, #223 ) ;
#13 = DIRECTION ( 'NONE',  ( 0.0000000000000000000, 1.000000000000000000, 0.0000000000000000000 ) ) ;
#14 = DIRECTION ( 'NONE',  ( 0.0000000000000000000, 1.000000000000000000, 0.0000000000000000000 ) ) ;
#15 = STYLED_ITEM ( 'NONE', ( #118 ), #197 ) ;
#16 = EDGE_CURVE ( 'NONE', #189, #168, #171, .T. ) ;
#17 = COLOUR_RGB ( '',0.2980392156862745057, 0.2980392156862745057, 0.2980392156862745057 ) ;
#18 = EDGE_CURVE ( 'NONE', #155, #152, #35, .T. ) ;
#19 = CARTESIAN_POINT ( 'NONE',  ( 5.204748896376250699E-17, 10.43750000000000000, 0.4249999999999999889 ) ) ;
#20 = AXIS2_PLACEMENT_3D ( 'NONE', #220, #221, #70 ) ;
#21 = VECTOR ( 'NONE', #72, 39.37007874015748143 ) ;
#22 = AXIS2_PLACEMENT_3D ( 'NONE', #138, #136, #135 ) ;
#23 = CIRCLE ( 'NONE', #123, 0.5250000000000000222 ) ;
#24 = ADVANCED_FACE ( 'NONE', ( #48 ), #46, .T. ) ;
#25 = AXIS2_PLACEMENT_3D ( 'NONE', #215, #34, #194 ) ;
#26 = ADVANCED_FACE ( 'NONE', ( #59, #58 ), #57, .F. ) ;
#27 = CARTESIAN_POINT ( 'NONE',  ( 0.0000000000000000000, -10.43750000000000000, 0.0000000000000000000 ) ) ;
#28 = DIMENSIONAL_EXPONENTS ( 1.000000000000000000, 0.0000000000000000000, 0.0000000000000000000, 0.0000000000000000000, 0.0000000000000000000, 0.0000000000000000000, 0.0000000000000000000 ) ;
#29 = MECHANICAL_DESIGN_GEOMETRIC_PRESENTATION_REPRESENTATION (  '', ( #11 ), #7 ) ;
#31 = EDGE_LOOP ( 'NONE', ( #3, #213 ) ) ;
#30 = DIMENSIONAL_EXPONENTS ( 1.000000000000000000, 0.0000000000000000000, 0.0000000000000000000, 0.0000000000000000000, 0.0000000000000000000, 0.0000000000000000000, 0.0000000000000000000 ) ;
#32 = EDGE_CURVE ( 'NONE', #152, #168, #65, .T. ) ;
#33 = AXIS2_PLACEMENT_3D ( 'NONE', #150, #148, #151 ) ;
#34 = DIRECTION ( 'NONE',  ( 0.0000000000000000000, 1.000000000000000000, 0.0000000000000000000 ) ) ;
#35 = CIRCLE ( 'NONE', #33, 0.5250000000000000222 ) ;
#36 = CYLINDRICAL_SURFACE ( 'NONE', #12, 0.4249999999999999889 ) ;
#37 = CARTESIAN_POINT ( 'NONE',  ( 6.429395695523603660E-17, -10.43750000000000000, 0.5250000000000000222 ) ) ;
#38 = AXIS2_PLACEMENT_3D ( 'NONE', #106, #105, #104 ) ;
#39 = CLOSED_SHELL ( 'NONE', ( #6, #217, #69, #26, #24, #42 ) ) ;
#40 = MECHANICAL_DESIGN_GEOMETRIC_PRESENTATION_REPRESENTATION (  '', ( #15 ), #99 ) ;
#41 = VECTOR ( 'NONE', #79, 39.37007874015748143 ) ;
#42 = ADVANCED_FACE ( 'NONE', ( #219 ), #36, .F. ) ;
#43 = EDGE_CURVE ( 'NONE', #49, #190, #62, .T. ) ;
#44 = AXIS2_PLACEMENT_3D ( 'NONE', #45, #146, #61 ) ;
#45 = CARTESIAN_POINT ( 'NONE',  ( 0.0000000000000000000, 10.43750000000000000, 0.0000000000000000000 ) ) ;
#46 = CYLINDRICAL_SURFACE ( 'NONE', #44, 0.5250000000000000222 ) ;
#47 = PRODUCT_DEFINITION_FORMATION_WITH_SPECIFIED_SOURCE ( 'ANY', '', #115, .NOT_KNOWN. ) ;
#48 = FACE_OUTER_BOUND ( 'NONE', #186, .T. ) ;
#49 = VERTEX_POINT ( 'NONE', #2 ) ;
#50 = EDGE_LOOP ( 'NONE', ( #177, #183, #52, #182 ) ) ;
#51 = FACE_OUTER_BOUND ( 'NONE', #50, .T. ) ;
#52 = ORIENTED_EDGE ( 'NONE', *, *, #43, .F. ) ;
#53 = DIRECTION ( 'NONE',  ( 0.0000000000000000000, 1.000000000000000000, 0.0000000000000000000 ) ) ;
#54 = CARTESIAN_POINT ( 'NONE',  ( 0.0000000000000000000, -10.43750000000000000, 0.0000000000000000000 ) ) ;
#55 = DIRECTION ( 'NONE',  ( 0.0000000000000000000, 0.0000000000000000000, 1.000000000000000000 ) ) ;
#56 = DIRECTION ( 'NONE',  ( 0.0000000000000000000, 1.000000000000000000, 0.0000000000000000000 ) ) ;
#57 = PLANE ( 'NONE',  #74 ) ;
#58 = FACE_BOUND ( 'NONE', #157, .T. ) ;
#59 = FACE_OUTER_BOUND ( 'NONE', #31, .T. ) ;
#60 = CARTESIAN_POINT ( 'NONE',  ( 5.204748896376250699E-17, 10.43750000000000000, 0.4249999999999999889 ) ) ;
#61 = DIRECTION ( 'NONE',  ( 0.0000000000000000000, 0.0000000000000000000, -1.000000000000000000 ) ) ;
#62 = CIRCLE ( 'NONE', #147, 0.4249999999999999889 ) ;
#63 = DIRECTION ( 'NONE',  ( 0.0000000000000000000, 1.000000000000000000, 0.0000000000000000000 ) ) ;
#64 = DIRECTION ( 'NONE',  ( 0.0000000000000000000, -0.0000000000000000000, 1.000000000000000000 ) ) ;
#65 = LINE ( 'NONE', #208, #41 ) ;
#66 = EDGE_CURVE ( 'NONE', #152, #155, #23, .T. ) ;
#67 = CARTESIAN_POINT ( 'NONE',  ( 0.0000000000000000000, -10.43750000000000000, 0.0000000000000000000 ) ) ;
#68 = DIRECTION ( 'NONE',  ( -0.0000000000000000000, -1.000000000000000000, -0.0000000000000000000 ) ) ;
#69 = ADVANCED_FACE ( 'NONE', ( #82, #9 ), #87, .T. ) ;
#70 = DIRECTION ( 'NONE',  ( 0.0000000000000000000, -0.0000000000000000000, 1.000000000000000000 ) ) ;
#71 = LINE ( 'NONE', #73, #21 ) ;
#72 = DIRECTION ( 'NONE',  ( -0.0000000000000000000, -1.000000000000000000, -0.0000000000000000000 ) ) ;
#73 = CARTESIAN_POINT ( 'NONE',  ( 0.0000000000000000000, 10.43750000000000000, -0.4249999999999999889 ) ) ;
#74 = AXIS2_PLACEMENT_3D ( 'NONE', #67, #63, #64 ) ;
#75 = CARTESIAN_POINT ( 'NONE',  ( 0.0000000000000000000, 10.43750000000000000, 0.0000000000000000000 ) ) ;
#76 = EDGE_CURVE ( 'NONE', #80, #49, #71, .T. ) ;
#77 = CARTESIAN_POINT ( 'NONE',  ( 0.0000000000000000000, 10.43750000000000000, -0.4249999999999999889 ) ) ;
#78 = LINE ( 'NONE', #60, #1 ) ;
#79 = DIRECTION ( 'NONE',  ( -0.0000000000000000000, -1.000000000000000000, -0.0000000000000000000 ) ) ;
#80 = VERTEX_POINT ( 'NONE', #77 ) ;
#81 = CARTESIAN_POINT ( 'NONE',  ( 5.204748896376250699E-17, -10.43750000000000000, 0.4249999999999999889 ) ) ;
#82 = FACE_OUTER_BOUND ( 'NONE', #191, .T. ) ;
#83 =( NAMED_UNIT ( * ) SI_UNIT ( $, .STERADIAN. ) SOLID_ANGLE_UNIT ( ) );
#84 = DIRECTION ( 'NONE',  ( 0.0000000000000000000, 1.000000000000000000, 0.0000000000000000000 ) ) ;
#85 = AXIS2_PLACEMENT_3D ( 'NONE', #145, #144, #143 ) ;
#86 = DIRECTION ( 'NONE',  ( 0.0000000000000000000, 0.0000000000000000000, 1.000000000000000000 ) ) ;
#87 = PLANE ( 'NONE',  #20 ) ;
#88 = EDGE_CURVE ( 'NONE', #188, #190, #78, .T. ) ;
#89 = DIRECTION ( 'NONE',  ( -0.0000000000000000000, -1.000000000000000000, -0.0000000000000000000 ) ) ;
#90 = CARTESIAN_POINT ( 'NONE',  ( 6.429395695523603660E-17, 10.43750000000000000, 0.5250000000000000222 ) ) ;
#91 = LINE ( 'NONE', #90, #98 ) ;
#92 = ORIENTED_EDGE ( 'NONE', *, *, #76, .T. ) ;
#93 = DIMENSIONAL_EXPONENTS ( 1.000000000000000000, 0.0000000000000000000, 0.0000000000000000000, 0.0000000000000000000, 0.0000000000000000000, 0.0000000000000000000, 0.0000000000000000000 ) ;
#94 = DIRECTION ( 'NONE',  ( 0.0000000000000000000, 0.0000000000000000000, 1.000000000000000000 ) ) ;
#95 = EDGE_LOOP ( 'NONE', ( #166, #192 ) ) ;
#96 = CIRCLE ( 'NONE', #85, 0.5250000000000000222 ) ;
#97 =( GEOMETRIC_REPRESENTATION_CONTEXT ( 3 ) GLOBAL_UNCERTAINTY_ASSIGNED_CONTEXT ( ( #200 ) ) GLOBAL_UNIT_ASSIGNED_CONTEXT ( ( #130, #129, #127 ) ) REPRESENTATION_CONTEXT ( 'NONE', 'WORKASPACE' ) );
#98 = VECTOR ( 'NONE', #89, 39.37007874015748143 ) ;
#99 =( GEOMETRIC_REPRESENTATION_CONTEXT ( 3 ) GLOBAL_UNCERTAINTY_ASSIGNED_CONTEXT ( ( #196 ) ) GLOBAL_UNIT_ASSIGNED_CONTEXT ( ( #112, #109, #83 ) ) REPRESENTATION_CONTEXT ( 'NONE', 'WORKASPACE' ) );
#100 = SHAPE_DEFINITION_REPRESENTATION ( #199, #197 ) ;
#101 = APPLICATION_PROTOCOL_DEFINITION ( 'draft international standard', 'automotive_design', 1998, #185 ) ;
#102 = CARTESIAN_POINT ( 'NONE',  ( 6.429395695523603660E-17, 10.43750000000000000, 0.5250000000000000222 ) ) ;
#103 = PRODUCT_CONTEXT ( 'NONE', #205, 'mechanical' ) ;
#104 = DIRECTION ( 'NONE',  ( 1.000000000000000000, 0.0000000000000000000, 0.0000000000000000000 ) ) ;
#105 = DIRECTION ( 'NONE',  ( 0.0000000000000000000, 0.0000000000000000000, 1.000000000000000000 ) ) ;
#106 = CARTESIAN_POINT ( 'NONE',  ( 0.0000000000000000000, 0.0000000000000000000, 0.0000000000000000000 ) ) ;
#107 = PRODUCT_DEFINITION ( 'UNKNOWN', '', #47, #165 ) ;
#108 = MANIFOLD_SOLID_BREP ( 'Boss-Extrude1', #39 ) ;
#109 =( NAMED_UNIT ( * ) PLANE_ANGLE_UNIT ( ) SI_UNIT ( $, .RADIAN. ) );
#110 = PRESENTATION_LAYER_ASSIGNMENT (  '', '', ( #11 ) ) ;
#111 = PRODUCT_RELATED_PRODUCT_CATEGORY ( 'part', '', ( #115 ) ) ;
#112 =( CONVERSION_BASED_UNIT ( 'INCH', #114 ) LENGTH_UNIT ( ) NAMED_UNIT ( #93 ) );
#113 = COLOUR_RGB ( '',0.2980392156862745057, 0.2980392156862745057, 0.2980392156862745057 ) ;
#114 = LENGTH_MEASURE_WITH_UNIT ( LENGTH_MEASURE( 0.02539999999999999897 ), #117 );
#115 = PRODUCT ( 'am-4279 Frame - Side to Side', 'am-4279 Frame - Side to Side', '', ( #103 ) ) ;
#116 = PRESENTATION_LAYER_ASSIGNMENT (  '', '', ( #15 ) ) ;
#117 =( LENGTH_UNIT ( ) NAMED_UNIT ( * ) SI_UNIT ( $, .METRE. ) );
#118 = PRESENTATION_STYLE_ASSIGNMENT (( #119 ) ) ;
#119 = SURFACE_STYLE_USAGE ( .BOTH. , #120 ) ;
#120 = SURFACE_SIDE_STYLE ('',( #121 ) ) ;
#121 = SURFACE_STYLE_FILL_AREA ( #122 ) ;
#122 = FILL_AREA_STYLE ('',( #124 ) ) ;
#123 = AXIS2_PLACEMENT_3D ( 'NONE', #75, #14, #94 ) ;
#124 = FILL_AREA_STYLE_COLOUR ( '', #113 ) ;
#125 = APPLICATION_PROTOCOL_DEFINITION ( 'draft international standard', 'automotive_design', 1998, #205 ) ;
#126 = AXIS2_PLACEMENT_3D ( 'NONE', #160, #56, #55 ) ;
#127 =( NAMED_UNIT ( * ) SI_UNIT ( $, .STERADIAN. ) SOLID_ANGLE_UNIT ( ) );
#128 = ORIENTED_EDGE ( 'NONE', *, *, #204, .F. ) ;
#129 =( NAMED_UNIT ( * ) PLANE_ANGLE_UNIT ( ) SI_UNIT ( $, .RADIAN. ) );
#130 =( CONVERSION_BASED_UNIT ( 'INCH', #131 ) LENGTH_UNIT ( ) NAMED_UNIT ( #28 ) );
#131 = LENGTH_MEASURE_WITH_UNIT ( LENGTH_MEASURE( 0.02539999999999999897 ), #133 );
#132 = DIRECTION ( 'NONE',  ( -0.0000000000000000000, -1.000000000000000000, -0.0000000000000000000 ) ) ;
#133 =( LENGTH_UNIT ( ) NAMED_UNIT ( * ) SI_UNIT ( $, .METRE. ) );
#134 = AXIS2_PLACEMENT_3D ( 'NONE', #164, #162, #161 ) ;
#135 = DIRECTION ( 'NONE',  ( 0.0000000000000000000, 0.0000000000000000000, -1.000000000000000000 ) ) ;
#136 = DIRECTION ( 'NONE',  ( -0.0000000000000000000, -1.000000000000000000, -0.0000000000000000000 ) ) ;
#137 = CIRCLE ( 'NONE', #126, 0.4249999999999999889 ) ;
#138 = CARTESIAN_POINT ( 'NONE',  ( 0.0000000000000000000, 10.43750000000000000, 0.0000000000000000000 ) ) ;
#139 = CYLINDRICAL_SURFACE ( 'NONE', #22, 0.5250000000000000222 ) ;
#140 = EDGE_CURVE ( 'NONE', #188, #80, #141, .T. ) ;
#141 = CIRCLE ( 'NONE', #25, 0.4249999999999999889 ) ;
#142 = FACE_OUTER_BOUND ( 'NONE', #156, .T. ) ;
#143 = DIRECTION ( 'NONE',  ( 0.0000000000000000000, 0.0000000000000000000, 1.000000000000000000 ) ) ;
#144 = DIRECTION ( 'NONE',  ( 0.0000000000000000000, 1.000000000000000000, 0.0000000000000000000 ) ) ;
#145 = CARTESIAN_POINT ( 'NONE',  ( 0.0000000000000000000, -10.43750000000000000, 0.0000000000000000000 ) ) ;
#146 = DIRECTION ( 'NONE',  ( -0.0000000000000000000, -1.000000000000000000, -0.0000000000000000000 ) ) ;
#147 = AXIS2_PLACEMENT_3D ( 'NONE', #195, #13, #86 ) ;
#148 = DIRECTION ( 'NONE',  ( 0.0000000000000000000, 1.000000000000000000, 0.0000000000000000000 ) ) ;
#149 = DIRECTION ( 'NONE',  ( 0.0000000000000000000, 0.0000000000000000000, 1.000000000000000000 ) ) ;
#150 = CARTESIAN_POINT ( 'NONE',  ( 0.0000000000000000000, 10.43750000000000000, 0.0000000000000000000 ) ) ;
#151 = DIRECTION ( 'NONE',  ( 0.0000000000000000000, 0.0000000000000000000, 1.000000000000000000 ) ) ;
#152 = VERTEX_POINT ( 'NONE', #206 ) ;
#153 = ORIENTED_EDGE ( 'NONE', *, *, #66, .T. ) ;
#154 = CYLINDRICAL_SURFACE ( 'NONE', #134, 0.4249999999999999889 ) ;
#155 = VERTEX_POINT ( 'NONE', #102 ) ;
#156 = EDGE_LOOP ( 'NONE', ( #175, #159, #176, #174 ) ) ;
#157 = EDGE_LOOP ( 'NONE', ( #178, #172 ) ) ;
#158 = ORIENTED_EDGE ( 'NONE', *, *, #32, .T. ) ;
#159 = ORIENTED_EDGE ( 'NONE', *, *, #204, .T. ) ;
#160 = CARTESIAN_POINT ( 'NONE',  ( 0.0000000000000000000, 10.43750000000000000, 0.0000000000000000000 ) ) ;
#161 = DIRECTION ( 'NONE',  ( 0.0000000000000000000, 0.0000000000000000000, -1.000000000000000000 ) ) ;
#162 = DIRECTION ( 'NONE',  ( -0.0000000000000000000, -1.000000000000000000, -0.0000000000000000000 ) ) ;
#163 = AXIS2_PLACEMENT_3D ( 'NONE', #27, #84, #169 ) ;
#164 = CARTESIAN_POINT ( 'NONE',  ( 0.0000000000000000000, 10.43750000000000000, 0.0000000000000000000 ) ) ;
#165 = PRODUCT_DEFINITION_CONTEXT ( 'detailed design', #185, 'design' ) ;
#166 = ORIENTED_EDGE ( 'NONE', *, *, #8, .F. ) ;
#167 = ORIENTED_EDGE ( 'NONE', *, *, #18, .T. ) ;
#168 = VERTEX_POINT ( 'NONE', #193 ) ;
#169 = DIRECTION ( 'NONE',  ( 0.0000000000000000000, 0.0000000000000000000, 1.000000000000000000 ) ) ;
#170 = ORIENTED_EDGE ( 'NONE', *, *, #140, .T. ) ;
#171 = CIRCLE ( 'NONE', #10, 0.5250000000000000222 ) ;
#172 = ORIENTED_EDGE ( 'NONE', *, *, #4, .T. ) ;
#173 = ORIENTED_EDGE ( 'NONE', *, *, #207, .T. ) ;
#174 = ORIENTED_EDGE ( 'NONE', *, *, #32, .F. ) ;
#175 = ORIENTED_EDGE ( 'NONE', *, *, #18, .F. ) ;
#176 = ORIENTED_EDGE ( 'NONE', *, *, #16, .T. ) ;
#177 = ORIENTED_EDGE ( 'NONE', *, *, #8, .T. ) ;
#178 = ORIENTED_EDGE ( 'NONE', *, *, #43, .T. ) ;
#179 = ORIENTED_EDGE ( 'NONE', *, *, #66, .F. ) ;
#180 = CIRCLE ( 'NONE', #163, 0.4249999999999999889 ) ;
#181 = EDGE_LOOP ( 'NONE', ( #184, #170, #92, #5 ) ) ;
#182 = ORIENTED_EDGE ( 'NONE', *, *, #76, .F. ) ;
#183 = ORIENTED_EDGE ( 'NONE', *, *, #88, .T. ) ;
#184 = ORIENTED_EDGE ( 'NONE', *, *, #88, .F. ) ;
#185 = APPLICATION_CONTEXT ( 'automotive_design' ) ;
#186 = EDGE_LOOP ( 'NONE', ( #128, #179, #158, #173 ) ) ;
#187 = UNCERTAINTY_MEASURE_WITH_UNIT (LENGTH_MEASURE( 1.000000000000000082E-05 ), #203, 'distance_accuracy_value', 'NONE');
#188 = VERTEX_POINT ( 'NONE', #19 ) ;
#189 = VERTEX_POINT ( 'NONE', #37 ) ;
#190 = VERTEX_POINT ( 'NONE', #81 ) ;
#191 = EDGE_LOOP ( 'NONE', ( #153, #167 ) ) ;
#192 = ORIENTED_EDGE ( 'NONE', *, *, #140, .F. ) ;
#193 = CARTESIAN_POINT ( 'NONE',  ( 0.0000000000000000000, -10.43750000000000000, -0.5250000000000000222 ) ) ;
#194 = DIRECTION ( 'NONE',  ( 0.0000000000000000000, 0.0000000000000000000, 1.000000000000000000 ) ) ;
#195 = CARTESIAN_POINT ( 'NONE',  ( 0.0000000000000000000, -10.43750000000000000, 0.0000000000000000000 ) ) ;
#196 = UNCERTAINTY_MEASURE_WITH_UNIT (LENGTH_MEASURE( 1.000000000000000082E-05 ), #112, 'distance_accuracy_value', 'NONE');
#197 = ADVANCED_BREP_SHAPE_REPRESENTATION ( 'am-4279 Frame - Side to Side', ( #108, #38 ), #97 ) ;
#198 =( NAMED_UNIT ( * ) SI_UNIT ( $, .STERADIAN. ) SOLID_ANGLE_UNIT ( ) );
#199 = PRODUCT_DEFINITION_SHAPE ( 'NONE', 'NONE',  #107 ) ;
#200 = UNCERTAINTY_MEASURE_WITH_UNIT (LENGTH_MEASURE( 1.000000000000000082E-05 ), #130, 'distance_accuracy_value', 'NONE');
#201 =( NAMED_UNIT ( * ) PLANE_ANGLE_UNIT ( ) SI_UNIT ( $, .RADIAN. ) );
#202 = LENGTH_MEASURE_WITH_UNIT ( LENGTH_MEASURE( 0.02539999999999999897 ), #209 );
#203 =( CONVERSION_BASED_UNIT ( 'INCH', #202 ) LENGTH_UNIT ( ) NAMED_UNIT ( #30 ) );
#204 = EDGE_CURVE ( 'NONE', #155, #189, #91, .T. ) ;
#205 = APPLICATION_CONTEXT ( 'automotive_design' ) ;
#206 = CARTESIAN_POINT ( 'NONE',  ( 0.0000000000000000000, 10.43750000000000000, -0.5250000000000000222 ) ) ;
#207 = EDGE_CURVE ( 'NONE', #168, #189, #96, .T. ) ;
#208 = CARTESIAN_POINT ( 'NONE',  ( 0.0000000000000000000, 10.43750000000000000, -0.5250000000000000222 ) ) ;
#209 =( LENGTH_UNIT ( ) NAMED_UNIT ( * ) SI_UNIT ( $, .METRE. ) );
#210 = PRESENTATION_STYLE_ASSIGNMENT (( #212 ) ) ;
#211 = SURFACE_SIDE_STYLE ('',( #214 ) ) ;
#212 = SURFACE_STYLE_USAGE ( .BOTH. , #211 ) ;
#213 = ORIENTED_EDGE ( 'NONE', *, *, #16, .F. ) ;
#214 = SURFACE_STYLE_FILL_AREA ( #218 ) ;
#215 = CARTESIAN_POINT ( 'NONE',  ( 0.0000000000000000000, 10.43750000000000000, 0.0000000000000000000 ) ) ;
#216 = FILL_AREA_STYLE_COLOUR ( '', #17 ) ;
#217 = ADVANCED_FACE ( 'NONE', ( #142 ), #139, .T. ) ;
#218 = FILL_AREA_STYLE ('',( #216 ) ) ;
#219 = FACE_OUTER_BOUND ( 'NONE', #181, .T. ) ;
#220 = CARTESIAN_POINT ( 'NONE',  ( 0.0000000000000000000, 10.43750000000000000, 0.0000000000000000000 ) ) ;
#221 = DIRECTION ( 'NONE',  ( 0.0000000000000000000, 1.000000000000000000, 0.0000000000000000000 ) ) ;
#222 = CARTESIAN_POINT ( 'NONE',  ( 0.0000000000000000000, 10.43750000000000000, 0.0000000000000000000 ) ) ;
#223 = DIRECTION ( 'NONE',  ( 0.0000000000000000000, 0.0000000000000000000, -1.000000000000000000 ) ) ;
ENDSEC;
END-ISO-10303-21;
