ISO-10303-21;
HEADER;
FILE_DESCRIPTION (( 'STEP AP214' ),
    '1' );
FILE_NAME ('am- 4284 Sleeve - Mid Goal Raiser.STEP',
    '2020-05-08T20:17:27',
    ( '' ),
    ( '' ),
    'SwSTEP 2.0',
    'SolidWorks 2019',
    '' );
FILE_SCHEMA (( 'AUTOMOTIVE_DESIGN' ));
ENDSEC;

DATA;
#1 = FACE_OUTER_BOUND ( 'NONE', #193, .T. ) ;
#2 = LENGTH_MEASURE_WITH_UNIT ( LENGTH_MEASURE( 0.02539999999999999897 ), #142 );
#3 = CARTESIAN_POINT ( 'NONE',  ( 0.0000000000000000000, 6.478444881889771523, -0.5374999999999999778 ) ) ;
#4 = CARTESIAN_POINT ( 'NONE',  ( -0.6574999999999999734, -6.598444881889774294, 0.6574999999999963096 ) ) ;
#5 = DIRECTION ( 'NONE',  ( 0.0000000000000000000, 0.0000000000000000000, 1.000000000000000000 ) ) ;
#6 =( BOUNDED_CURVE ( )  B_SPLINE_CURVE ( 3, ( #171, #177, #144, #168 ),
 .UNSPECIFIED., .F., .T. ) 
 B_SPLINE_CURVE_WITH_KNOTS ( ( 4, 4 ),
 ( 0.0000000000000000000, 3.141592653589793116 ),
 .UNSPECIFIED. ) 
 CURVE ( )  GEOMETRIC_REPRESENTATION_ITEM ( )  RATIONAL_B_SPLINE_CURVE ( ( 1.000000000000000000, 0.3333333333333333703, 0.3333333333333333703, 1.000000000000000000 ) ) 
 REPRESENTATION_ITEM ( '' )  );
#7 = APPLICATION_CONTEXT ( 'automotive_design' ) ;
#8 = DIRECTION ( 'NONE',  ( -0.0000000000000000000, -1.000000000000000000, -0.0000000000000000000 ) ) ;
#9 = DIRECTION ( 'NONE',  ( -0.0000000000000000000, -1.000000000000000000, -0.0000000000000000000 ) ) ;
#10 = AXIS2_PLACEMENT_3D ( 'NONE', #4, #34, #161 ) ;
#11 = COLOUR_RGB ( '',0.6941176470588235059, 0.09803921568627450844, 0.09803921568627450844 ) ;
#12 =( GEOMETRIC_REPRESENTATION_CONTEXT ( 3 ) GLOBAL_UNCERTAINTY_ASSIGNED_CONTEXT ( ( #154 ) ) GLOBAL_UNIT_ASSIGNED_CONTEXT ( ( #136, #49, #48 ) ) REPRESENTATION_CONTEXT ( 'NONE', 'WORKASPACE' ) );
#13 = LINE ( 'NONE', #191, #29 ) ;
#14 = FACE_OUTER_BOUND ( 'NONE', #90, .T. ) ;
#15 = MECHANICAL_DESIGN_GEOMETRIC_PRESENTATION_REPRESENTATION (  '', ( #18 ), #12 ) ;
#16 = VECTOR ( 'NONE', #126, 39.37007874015748143 ) ;
#17 = CARTESIAN_POINT ( 'NONE',  ( 1.314999999999999725, 5.283444881889758804, 0.6574999999999998623 ) ) ;
#18 = STYLED_ITEM ( 'NONE', ( #87 ), #80 ) ;
#19 = EDGE_CURVE ( 'NONE', #45, #174, #112, .T. ) ;
#20 = CARTESIAN_POINT ( 'NONE',  ( 1.074999999999999956, -5.403444881889758022, -0.5375000000000000888 ) ) ;
#21 = LENGTH_MEASURE_WITH_UNIT ( LENGTH_MEASURE( 0.02539999999999999897 ), #143 );
#22 = CARTESIAN_POINT ( 'NONE',  ( 1.314999999999999725, 6.598444881889772518, -0.6574999999999998623 ) ) ;
#23 =( BOUNDED_CURVE ( )  B_SPLINE_CURVE ( 3, ( #3, #83, #164, #188 ),
 .UNSPECIFIED., .F., .T. ) 
 B_SPLINE_CURVE_WITH_KNOTS ( ( 4, 4 ),
 ( 3.141592653589793116, 6.283185307179586232 ),
 .UNSPECIFIED. ) 
 CURVE ( )  GEOMETRIC_REPRESENTATION_ITEM ( )  RATIONAL_B_SPLINE_CURVE ( ( 1.000000000000000000, 0.3333333333333333703, 0.3333333333333333703, 1.000000000000000000 ) ) 
 REPRESENTATION_ITEM ( '' )  );
#24 = CLOSED_SHELL ( 'NONE', ( #25, #40, #30, #72, #145, #97 ) ) ;
#25 = ADVANCED_FACE ( 'NONE', ( #213 ), #220, .T. ) ;
#26 =( BOUNDED_CURVE ( )  B_SPLINE_CURVE ( 3, ( #76, #59, #78, #113 ),
 .UNSPECIFIED., .F., .T. ) 
 B_SPLINE_CURVE_WITH_KNOTS ( ( 4, 4 ),
 ( 1.224646799147353454E-16, 3.141592653589793116 ),
 .UNSPECIFIED. ) 
 CURVE ( )  GEOMETRIC_REPRESENTATION_ITEM ( )  RATIONAL_B_SPLINE_CURVE ( ( 1.000000000000000000, 0.3333333333333333703, 0.3333333333333333703, 1.000000000000000000 ) ) 
 REPRESENTATION_ITEM ( '' )  );
#27 = VECTOR ( 'NONE', #65, 39.37007874015748143 ) ;
#28 = AXIS2_PLACEMENT_3D ( 'NONE', #67, #8, #151 ) ;
#29 = VECTOR ( 'NONE', #163, 39.37007874015748143 ) ;
#30 = ADVANCED_FACE ( 'NONE', ( #1 ), #141, .F. ) ;
#31 = PRODUCT_DEFINITION ( 'UNKNOWN', '', #104, #91 ) ;
#32 =( NAMED_UNIT ( * ) PLANE_ANGLE_UNIT ( ) SI_UNIT ( $, .RADIAN. ) );
#33 = COLOUR_RGB ( '',0.6941176470588235059, 0.09803921568627450844, 0.09803921568627450844 ) ;
#34 = DIRECTION ( 'NONE',  ( 0.0000000000000000000, -0.7071067811865420216, -0.7071067811865531239 ) ) ;
#35 = CARTESIAN_POINT ( 'NONE',  ( 0.0000000000000000000, -5.283444881889757028, -0.6574999999999999734 ) ) ;
#36 = STYLED_ITEM ( 'NONE', ( #132 ), #55 ) ;
#37 = VECTOR ( 'NONE', #9, 39.37007874015748143 ) ;
#38 = EDGE_CURVE ( 'NONE', #56, #200, #69, .T. ) ;
#39 = ORIENTED_EDGE ( 'NONE', *, *, #118, .F. ) ;
#40 = ADVANCED_FACE ( 'NONE', ( #139 ), #152, .F. ) ;
#41 =( GEOMETRIC_REPRESENTATION_CONTEXT ( 3 ) GLOBAL_UNCERTAINTY_ASSIGNED_CONTEXT ( ( #68 ) ) GLOBAL_UNIT_ASSIGNED_CONTEXT ( ( #79, #32, #189 ) ) REPRESENTATION_CONTEXT ( 'NONE', 'WORKASPACE' ) );
#42 = SURFACE_SIDE_STYLE ('',( #130 ) ) ;
#43 = PLANE ( 'NONE',  #10 ) ;
#44 = CARTESIAN_POINT ( 'NONE',  ( 0.0000000000000000000, -5.283444881889757028, -0.6574999999999999734 ) ) ;
#45 = VERTEX_POINT ( 'NONE', #115 ) ;
#46 = DIMENSIONAL_EXPONENTS ( 1.000000000000000000, 0.0000000000000000000, 0.0000000000000000000, 0.0000000000000000000, 0.0000000000000000000, 0.0000000000000000000, 0.0000000000000000000 ) ;
#47 = CARTESIAN_POINT ( 'NONE',  ( 1.314999999999999725, -5.283444881889756140, -0.6575000000000001954 ) ) ;
#48 =( NAMED_UNIT ( * ) SI_UNIT ( $, .STERADIAN. ) SOLID_ANGLE_UNIT ( ) );
#49 =( NAMED_UNIT ( * ) PLANE_ANGLE_UNIT ( ) SI_UNIT ( $, .RADIAN. ) );
#50 = UNCERTAINTY_MEASURE_WITH_UNIT (LENGTH_MEASURE( 1.000000000000000082E-05 ), #137, 'distance_accuracy_value', 'NONE');
#51 = CARTESIAN_POINT ( 'NONE',  ( 8.052052704393848613E-17, -6.598444881889777847, 0.6574999999999999734 ) ) ;
#52 = PRODUCT_RELATED_PRODUCT_CATEGORY ( 'part', '', ( #172 ) ) ;
#53 = CARTESIAN_POINT ( 'NONE',  ( 0.0000000000000000000, 0.0000000000000000000, 0.0000000000000000000 ) ) ;
#54 = FILL_AREA_STYLE_COLOUR ( '', #33 ) ;
#55 = ADVANCED_BREP_SHAPE_REPRESENTATION ( 'am- 4284 Sleeve - Mid Goal Raiser', ( #80, #84 ), #41 ) ;
#56 = VERTEX_POINT ( 'NONE', #133 ) ;
#57 = PRESENTATION_LAYER_ASSIGNMENT (  '', '', ( #18 ) ) ;
#58 = AXIS2_PLACEMENT_3D ( 'NONE', #221, #223, #74 ) ;
#59 = CARTESIAN_POINT ( 'NONE',  ( 1.074999999999999956, 5.403444881889758911, 0.5374999999999999778 ) ) ;
#60 = LINE ( 'NONE', #102, #27 ) ;
#61 = FACE_OUTER_BOUND ( 'NONE', #206, .T. ) ;
#62 = DIRECTION ( 'NONE',  ( 0.0000000000000000000, 0.0000000000000000000, -1.000000000000000000 ) ) ;
#63 = DIRECTION ( 'NONE',  ( -0.0000000000000000000, -1.000000000000000000, -0.0000000000000000000 ) ) ;
#64 = VERTEX_POINT ( 'NONE', #135 ) ;
#65 = DIRECTION ( 'NONE',  ( -0.0000000000000000000, -1.000000000000000000, -0.0000000000000000000 ) ) ;
#66 = CYLINDRICAL_SURFACE ( 'NONE', #125, 0.6574999999999999734 ) ;
#67 = CARTESIAN_POINT ( 'NONE',  ( 0.0000000000000000000, 7.000000000000000000, 0.0000000000000000000 ) ) ;
#68 = UNCERTAINTY_MEASURE_WITH_UNIT (LENGTH_MEASURE( 1.000000000000000082E-05 ), #79, 'distance_accuracy_value', 'NONE');
#69 =( BOUNDED_CURVE ( )  B_SPLINE_CURVE ( 3, ( #148, #20, #169, #149 ),
 .UNSPECIFIED., .F., .T. ) 
 B_SPLINE_CURVE_WITH_KNOTS ( ( 4, 4 ),
 ( 3.141592653589793116, 6.283185307179586232 ),
 .UNSPECIFIED. ) 
 CURVE ( )  GEOMETRIC_REPRESENTATION_ITEM ( )  RATIONAL_B_SPLINE_CURVE ( ( 1.000000000000000000, 0.3333333333333333703, 0.3333333333333333703, 1.000000000000000000 ) ) 
 REPRESENTATION_ITEM ( '' )  );
#70 = EDGE_CURVE ( 'NONE', #174, #194, #129, .T. ) ;
#71 = CARTESIAN_POINT ( 'NONE',  ( 1.314999999999999725, -6.598444881889776958, 0.6574999999999999734 ) ) ;
#72 = ADVANCED_FACE ( 'NONE', ( #124, #127 ), #123, .T. ) ;
#73 = ORIENTED_EDGE ( 'NONE', *, *, #203, .T. ) ;
#74 = DIRECTION ( 'NONE',  ( 0.0000000000000000000, 0.0000000000000000000, -1.000000000000000000 ) ) ;
#75 =( BOUNDED_CURVE ( )  B_SPLINE_CURVE ( 3, ( #35, #47, #71, #82 ),
 .UNSPECIFIED., .F., .T. ) 
 B_SPLINE_CURVE_WITH_KNOTS ( ( 4, 4 ),
 ( 3.141592653589793116, 6.283185307179586232 ),
 .UNSPECIFIED. ) 
 CURVE ( )  GEOMETRIC_REPRESENTATION_ITEM ( )  RATIONAL_B_SPLINE_CURVE ( ( 1.000000000000000000, 0.3333333333333333703, 0.3333333333333333703, 1.000000000000000000 ) ) 
 REPRESENTATION_ITEM ( '' )  );
#76 = CARTESIAN_POINT ( 'NONE',  ( 6.582476545417024321E-17, 5.403444881889758911, 0.5374999999999999778 ) ) ;
#77 = LINE ( 'NONE', #173, #37 ) ;
#78 = CARTESIAN_POINT ( 'NONE',  ( 1.074999999999999956, 6.478444881889771523, -0.5374999999999999778 ) ) ;
#79 =( CONVERSION_BASED_UNIT ( 'INCH', #21 ) LENGTH_UNIT ( ) NAMED_UNIT ( #181 ) );
#80 = MANIFOLD_SOLID_BREP ( 'Cut-Extrude1', #24 ) ;
#81 = EDGE_CURVE ( 'NONE', #96, #200, #60, .T. ) ;
#82 = CARTESIAN_POINT ( 'NONE',  ( 8.052052704393848613E-17, -6.598444881889777847, 0.6574999999999999734 ) ) ;
#83 = CARTESIAN_POINT ( 'NONE',  ( -1.074999999999999956, 6.478444881889771523, -0.5375000000000000888 ) ) ;
#84 = AXIS2_PLACEMENT_3D ( 'NONE', #53, #5, #222 ) ;
#85 = EDGE_LOOP ( 'NONE', ( #205, #204 ) ) ;
#86 = SURFACE_STYLE_USAGE ( .BOTH. , #99 ) ;
#87 = PRESENTATION_STYLE_ASSIGNMENT (( #86 ) ) ;
#88 = EDGE_LOOP ( 'NONE', ( #208, #197 ) ) ;
#89 = APPLICATION_CONTEXT ( 'automotive_design' ) ;
#90 = EDGE_LOOP ( 'NONE', ( #196, #192 ) ) ;
#91 = PRODUCT_DEFINITION_CONTEXT ( 'detailed design', #89, 'design' ) ;
#92 = ORIENTED_EDGE ( 'NONE', *, *, #70, .F. ) ;
#93 = PRODUCT_DEFINITION_SHAPE ( 'NONE', 'NONE',  #31 ) ;
#94 = ORIENTED_EDGE ( 'NONE', *, *, #19, .F. ) ;
#95 = LENGTH_MEASURE_WITH_UNIT ( LENGTH_MEASURE( 0.02539999999999999897 ), #101 );
#96 = VERTEX_POINT ( 'NONE', #100 ) ;
#97 = ADVANCED_FACE ( 'NONE', ( #61 ), #66, .T. ) ;
#98 = CARTESIAN_POINT ( 'NONE',  ( 0.0000000000000000000, 7.000000000000000000, 0.0000000000000000000 ) ) ;
#99 = SURFACE_SIDE_STYLE ('',( #117 ) ) ;
#100 = CARTESIAN_POINT ( 'NONE',  ( 6.582476545417024321E-17, 5.403444881889758911, 0.5374999999999999778 ) ) ;
#101 =( LENGTH_UNIT ( ) NAMED_UNIT ( * ) SI_UNIT ( $, .METRE. ) );
#102 = CARTESIAN_POINT ( 'NONE',  ( 6.582476545417024321E-17, 7.000000000000000000, 0.5374999999999999778 ) ) ;
#103 = EDGE_CURVE ( 'NONE', #96, #190, #26, .T. ) ;
#104 = PRODUCT_DEFINITION_FORMATION_WITH_SPECIFIED_SOURCE ( 'ANY', '', #172, .NOT_KNOWN. ) ;
#105 = AXIS2_PLACEMENT_3D ( 'NONE', #147, #183, #116 ) ;
#106 =( NAMED_UNIT ( * ) PLANE_ANGLE_UNIT ( ) SI_UNIT ( $, .RADIAN. ) );
#107 = FILL_AREA_STYLE ('',( #110 ) ) ;
#108 = EDGE_CURVE ( 'NONE', #194, #64, #211, .T. ) ;
#109 = MECHANICAL_DESIGN_GEOMETRIC_PRESENTATION_REPRESENTATION (  '', ( #36 ), #114 ) ;
#110 = FILL_AREA_STYLE_COLOUR ( '', #11 ) ;
#111 = CARTESIAN_POINT ( 'NONE',  ( 6.582476545417024321E-17, -6.478444881889775964, 0.5374999999999999778 ) ) ;
#112 =( BOUNDED_CURVE ( )  B_SPLINE_CURVE ( 3, ( #215, #216, #218, #219 ),
 .UNSPECIFIED., .F., .T. ) 
 B_SPLINE_CURVE_WITH_KNOTS ( ( 4, 4 ),
 ( 3.141592653589793116, 6.283185307179586232 ),
 .UNSPECIFIED. ) 
 CURVE ( )  GEOMETRIC_REPRESENTATION_ITEM ( )  RATIONAL_B_SPLINE_CURVE ( ( 1.000000000000000000, 0.3333333333333333703, 0.3333333333333333703, 1.000000000000000000 ) ) 
 REPRESENTATION_ITEM ( '' )  );
#113 = CARTESIAN_POINT ( 'NONE',  ( 0.0000000000000000000, 6.478444881889771523, -0.5374999999999999778 ) ) ;
#114 =( GEOMETRIC_REPRESENTATION_CONTEXT ( 3 ) GLOBAL_UNCERTAINTY_ASSIGNED_CONTEXT ( ( #50 ) ) GLOBAL_UNIT_ASSIGNED_CONTEXT ( ( #137, #106, #150 ) ) REPRESENTATION_CONTEXT ( 'NONE', 'WORKASPACE' ) );
#115 = CARTESIAN_POINT ( 'NONE',  ( 0.0000000000000000000, 6.598444881889772518, -0.6574999999999999734 ) ) ;
#116 = DIRECTION ( 'NONE',  ( 0.0000000000000000000, 0.0000000000000000000, -1.000000000000000000 ) ) ;
#117 = SURFACE_STYLE_FILL_AREA ( #107 ) ;
#118 = EDGE_CURVE ( 'NONE', #64, #194, #75, .T. ) ;
#119 = CARTESIAN_POINT ( 'NONE',  ( -1.314999999999999725, -5.283444881889756140, -0.6574999999999998623 ) ) ;
#120 = CARTESIAN_POINT ( 'NONE',  ( -0.6574999999999999734, 6.598444881889770741, -0.6574999999999978639 ) ) ;
#121 = DIRECTION ( 'NONE',  ( 0.0000000000000000000, 0.7071067811865435759, 0.7071067811865514585 ) ) ;
#122 = DIRECTION ( 'NONE',  ( 0.0000000000000000000, -0.7071067811865514585, 0.7071067811865435759 ) ) ;
#123 = PLANE ( 'NONE',  #160 ) ;
#124 = FACE_BOUND ( 'NONE', #85, .T. ) ;
#125 = AXIS2_PLACEMENT_3D ( 'NONE', #98, #63, #62 ) ;
#126 = DIRECTION ( 'NONE',  ( -0.0000000000000000000, -1.000000000000000000, -0.0000000000000000000 ) ) ;
#127 = FACE_OUTER_BOUND ( 'NONE', #88, .T. ) ;
#128 = EDGE_CURVE ( 'NONE', #174, #45, #186, .T. ) ;
#129 = LINE ( 'NONE', #155, #16 ) ;
#130 = SURFACE_STYLE_FILL_AREA ( #134 ) ;
#131 = SURFACE_STYLE_USAGE ( .BOTH. , #42 ) ;
#132 = PRESENTATION_STYLE_ASSIGNMENT (( #131 ) ) ;
#133 = CARTESIAN_POINT ( 'NONE',  ( 0.0000000000000000000, -5.403444881889758911, -0.5374999999999999778 ) ) ;
#134 = FILL_AREA_STYLE ('',( #54 ) ) ;
#135 = CARTESIAN_POINT ( 'NONE',  ( 0.0000000000000000000, -5.283444881889757028, -0.6574999999999999734 ) ) ;
#136 =( CONVERSION_BASED_UNIT ( 'INCH', #95 ) LENGTH_UNIT ( ) NAMED_UNIT ( #202 ) );
#137 =( CONVERSION_BASED_UNIT ( 'INCH', #2 ) LENGTH_UNIT ( ) NAMED_UNIT ( #46 ) );
#138 = EDGE_CURVE ( 'NONE', #45, #64, #77, .T. ) ;
#139 = FACE_OUTER_BOUND ( 'NONE', #165, .T. ) ;
#140 = SHAPE_DEFINITION_REPRESENTATION ( #93, #55 ) ;
#141 = CYLINDRICAL_SURFACE ( 'NONE', #28, 0.5374999999999999778 ) ;
#142 =( LENGTH_UNIT ( ) NAMED_UNIT ( * ) SI_UNIT ( $, .METRE. ) );
#143 =( LENGTH_UNIT ( ) NAMED_UNIT ( * ) SI_UNIT ( $, .METRE. ) );
#144 = CARTESIAN_POINT ( 'NONE',  ( -1.074999999999999956, -5.403444881889758022, -0.5374999999999999778 ) ) ;
#145 = ADVANCED_FACE ( 'NONE', ( #156, #14 ), #43, .T. ) ;
#146 = CARTESIAN_POINT ( 'NONE',  ( -1.314999999999999725, -6.598444881889776958, 0.6574999999999999734 ) ) ;
#147 = CARTESIAN_POINT ( 'NONE',  ( 0.0000000000000000000, 7.000000000000000000, 0.0000000000000000000 ) ) ;
#148 = CARTESIAN_POINT ( 'NONE',  ( 0.0000000000000000000, -5.403444881889758911, -0.5374999999999999778 ) ) ;
#149 = CARTESIAN_POINT ( 'NONE',  ( 6.582476545417024321E-17, -6.478444881889775964, 0.5374999999999999778 ) ) ;
#150 =( NAMED_UNIT ( * ) SI_UNIT ( $, .STERADIAN. ) SOLID_ANGLE_UNIT ( ) );
#151 = DIRECTION ( 'NONE',  ( 0.0000000000000000000, 0.0000000000000000000, -1.000000000000000000 ) ) ;
#152 = CYLINDRICAL_SURFACE ( 'NONE', #105, 0.5374999999999999778 ) ;
#153 = ORIENTED_EDGE ( 'NONE', *, *, #175, .T. ) ;
#154 = UNCERTAINTY_MEASURE_WITH_UNIT (LENGTH_MEASURE( 1.000000000000000082E-05 ), #136, 'distance_accuracy_value', 'NONE');
#155 = CARTESIAN_POINT ( 'NONE',  ( 8.052052704393848613E-17, 7.000000000000000000, 0.6574999999999999734 ) ) ;
#156 = FACE_BOUND ( 'NONE', #179, .T. ) ;
#157 = CARTESIAN_POINT ( 'NONE',  ( 8.052052704393848613E-17, -6.598444881889777847, 0.6574999999999999734 ) ) ;
#158 = CARTESIAN_POINT ( 'NONE',  ( 8.052052704393848613E-17, 5.283444881889758804, 0.6574999999999999734 ) ) ;
#159 = CARTESIAN_POINT ( 'NONE',  ( 0.0000000000000000000, 6.598444881889772518, -0.6574999999999999734 ) ) ;
#160 = AXIS2_PLACEMENT_3D ( 'NONE', #120, #121, #122 ) ;
#161 = DIRECTION ( 'NONE',  ( 0.0000000000000000000, 0.7071067811865531239, -0.7071067811865420216 ) ) ;
#162 = CARTESIAN_POINT ( 'NONE',  ( 0.0000000000000000000, 6.478444881889771523, -0.5374999999999999778 ) ) ;
#163 = DIRECTION ( 'NONE',  ( -0.0000000000000000000, -1.000000000000000000, -0.0000000000000000000 ) ) ;
#164 = CARTESIAN_POINT ( 'NONE',  ( -1.074999999999999956, 5.403444881889758911, 0.5374999999999999778 ) ) ;
#165 = EDGE_LOOP ( 'NONE', ( #73, #182, #153, #185 ) ) ;
#166 = PRESENTATION_LAYER_ASSIGNMENT (  '', '', ( #36 ) ) ;
#167 = CARTESIAN_POINT ( 'NONE',  ( 8.052052704393848613E-17, 5.283444881889758804, 0.6574999999999999734 ) ) ;
#168 = CARTESIAN_POINT ( 'NONE',  ( 0.0000000000000000000, -5.403444881889758911, -0.5374999999999999778 ) ) ;
#169 = CARTESIAN_POINT ( 'NONE',  ( 1.074999999999999956, -6.478444881889774187, 0.5374999999999999778 ) ) ;
#170 = ORIENTED_EDGE ( 'NONE', *, *, #81, .F. ) ;
#171 = CARTESIAN_POINT ( 'NONE',  ( 6.582476545417024321E-17, -6.478444881889775964, 0.5374999999999999778 ) ) ;
#172 = PRODUCT ( 'am- 4284 Sleeve - Mid Goal Raiser', 'am- 4284 Sleeve - Mid Goal Raiser', '', ( #214 ) ) ;
#173 = CARTESIAN_POINT ( 'NONE',  ( 0.0000000000000000000, 7.000000000000000000, -0.6574999999999999734 ) ) ;
#174 = VERTEX_POINT ( 'NONE', #167 ) ;
#175 = EDGE_CURVE ( 'NONE', #200, #56, #6, .T. ) ;
#176 = APPLICATION_PROTOCOL_DEFINITION ( 'draft international standard', 'automotive_design', 1998, #7 ) ;
#177 = CARTESIAN_POINT ( 'NONE',  ( -1.074999999999999956, -6.478444881889774187, 0.5374999999999999778 ) ) ;
#178 = ORIENTED_EDGE ( 'NONE', *, *, #138, .F. ) ;
#179 = EDGE_LOOP ( 'NONE', ( #199, #195 ) ) ;
#180 = ORIENTED_EDGE ( 'NONE', *, *, #70, .T. ) ;
#181 = DIMENSIONAL_EXPONENTS ( 1.000000000000000000, 0.0000000000000000000, 0.0000000000000000000, 0.0000000000000000000, 0.0000000000000000000, 0.0000000000000000000, 0.0000000000000000000 ) ;
#182 = ORIENTED_EDGE ( 'NONE', *, *, #81, .T. ) ;
#183 = DIRECTION ( 'NONE',  ( -0.0000000000000000000, -1.000000000000000000, -0.0000000000000000000 ) ) ;
#184 = ORIENTED_EDGE ( 'NONE', *, *, #128, .F. ) ;
#185 = ORIENTED_EDGE ( 'NONE', *, *, #212, .F. ) ;
#186 =( BOUNDED_CURVE ( )  B_SPLINE_CURVE ( 3, ( #158, #17, #22, #159 ),
 .UNSPECIFIED., .F., .T. ) 
 B_SPLINE_CURVE_WITH_KNOTS ( ( 4, 4 ),
 ( 1.224646799147353947E-16, 3.141592653589793116 ),
 .UNSPECIFIED. ) 
 CURVE ( )  GEOMETRIC_REPRESENTATION_ITEM ( )  RATIONAL_B_SPLINE_CURVE ( ( 1.000000000000000000, 0.3333333333333333703, 0.3333333333333333703, 1.000000000000000000 ) ) 
 REPRESENTATION_ITEM ( '' )  );
#187 = ORIENTED_EDGE ( 'NONE', *, *, #103, .T. ) ;
#188 = CARTESIAN_POINT ( 'NONE',  ( 6.582476545417024321E-17, 5.403444881889758911, 0.5374999999999999778 ) ) ;
#189 =( NAMED_UNIT ( * ) SI_UNIT ( $, .STERADIAN. ) SOLID_ANGLE_UNIT ( ) );
#190 = VERTEX_POINT ( 'NONE', #162 ) ;
#191 = CARTESIAN_POINT ( 'NONE',  ( 0.0000000000000000000, 7.000000000000000000, -0.5374999999999999778 ) ) ;
#192 = ORIENTED_EDGE ( 'NONE', *, *, #108, .T. ) ;
#193 = EDGE_LOOP ( 'NONE', ( #170, #187, #201, #210 ) ) ;
#194 = VERTEX_POINT ( 'NONE', #157 ) ;
#195 = ORIENTED_EDGE ( 'NONE', *, *, #175, .F. ) ;
#196 = ORIENTED_EDGE ( 'NONE', *, *, #118, .T. ) ;
#197 = ORIENTED_EDGE ( 'NONE', *, *, #128, .T. ) ;
#198 = ORIENTED_EDGE ( 'NONE', *, *, #138, .T. ) ;
#199 = ORIENTED_EDGE ( 'NONE', *, *, #38, .F. ) ;
#200 = VERTEX_POINT ( 'NONE', #111 ) ;
#201 = ORIENTED_EDGE ( 'NONE', *, *, #212, .T. ) ;
#202 = DIMENSIONAL_EXPONENTS ( 1.000000000000000000, 0.0000000000000000000, 0.0000000000000000000, 0.0000000000000000000, 0.0000000000000000000, 0.0000000000000000000, 0.0000000000000000000 ) ;
#203 = EDGE_CURVE ( 'NONE', #190, #96, #23, .T. ) ;
#204 = ORIENTED_EDGE ( 'NONE', *, *, #103, .F. ) ;
#205 = ORIENTED_EDGE ( 'NONE', *, *, #203, .F. ) ;
#206 = EDGE_LOOP ( 'NONE', ( #92, #94, #198, #209 ) ) ;
#207 = EDGE_LOOP ( 'NONE', ( #184, #180, #39, #178 ) ) ;
#208 = ORIENTED_EDGE ( 'NONE', *, *, #19, .T. ) ;
#209 = ORIENTED_EDGE ( 'NONE', *, *, #108, .F. ) ;
#210 = ORIENTED_EDGE ( 'NONE', *, *, #38, .T. ) ;
#211 =( BOUNDED_CURVE ( )  B_SPLINE_CURVE ( 3, ( #51, #146, #119, #44 ),
 .UNSPECIFIED., .F., .T. ) 
 B_SPLINE_CURVE_WITH_KNOTS ( ( 4, 4 ),
 ( 0.0000000000000000000, 3.141592653589793116 ),
 .UNSPECIFIED. ) 
 CURVE ( )  GEOMETRIC_REPRESENTATION_ITEM ( )  RATIONAL_B_SPLINE_CURVE ( ( 1.000000000000000000, 0.3333333333333333703, 0.3333333333333333703, 1.000000000000000000 ) ) 
 REPRESENTATION_ITEM ( '' )  );
#212 = EDGE_CURVE ( 'NONE', #190, #56, #13, .T. ) ;
#213 = FACE_OUTER_BOUND ( 'NONE', #207, .T. ) ;
#214 = PRODUCT_CONTEXT ( 'NONE', #7, 'mechanical' ) ;
#215 = CARTESIAN_POINT ( 'NONE',  ( 0.0000000000000000000, 6.598444881889772518, -0.6574999999999999734 ) ) ;
#216 = CARTESIAN_POINT ( 'NONE',  ( -1.314999999999999725, 6.598444881889772518, -0.6575000000000001954 ) ) ;
#217 = APPLICATION_PROTOCOL_DEFINITION ( 'draft international standard', 'automotive_design', 1998, #89 ) ;
#218 = CARTESIAN_POINT ( 'NONE',  ( -1.314999999999999725, 5.283444881889758804, 0.6574999999999999734 ) ) ;
#219 = CARTESIAN_POINT ( 'NONE',  ( 8.052052704393848613E-17, 5.283444881889758804, 0.6574999999999999734 ) ) ;
#220 = CYLINDRICAL_SURFACE ( 'NONE', #58, 0.6574999999999999734 ) ;
#221 = CARTESIAN_POINT ( 'NONE',  ( 0.0000000000000000000, 7.000000000000000000, 0.0000000000000000000 ) ) ;
#222 = DIRECTION ( 'NONE',  ( 1.000000000000000000, 0.0000000000000000000, 0.0000000000000000000 ) ) ;
#223 = DIRECTION ( 'NONE',  ( -0.0000000000000000000, -1.000000000000000000, -0.0000000000000000000 ) ) ;
ENDSEC;
END-ISO-10303-21;
