ISO-10303-21;
HEADER;
FILE_DESCRIPTION (( 'STEP AP214' ),
    '1' );
FILE_NAME ('am- 4286 Sleeve - Flat to angled Front Top.STEP',
    '2020-05-08T20:15:41',
    ( '' ),
    ( '' ),
    'SwSTEP 2.0',
    'SolidWorks 2019',
    '' );
FILE_SCHEMA (( 'AUTOMOTIVE_DESIGN' ));
ENDSEC;

DATA;
#1 =( BOUNDED_CURVE ( )  B_SPLINE_CURVE ( 3, ( #81, #82, #83, #84 ),
 .UNSPECIFIED., .F., .T. ) 
 B_SPLINE_CURVE_WITH_KNOTS ( ( 4, 4 ),
 ( 3.141592653589793116, 6.283185307179586232 ),
 .UNSPECIFIED. ) 
 CURVE ( )  GEOMETRIC_REPRESENTATION_ITEM ( )  RATIONAL_B_SPLINE_CURVE ( ( 1.000000000000000000, 0.3333333333333333703, 0.3333333333333333703, 1.000000000000000000 ) ) 
 REPRESENTATION_ITEM ( '' )  );
#2 = EDGE_CURVE ( 'NONE', #74, #38, #1, .T. ) ;
#3 = CIRCLE ( 'NONE', #206, 0.5374999999999999778 ) ;
#4 = AXIS2_PLACEMENT_3D ( 'NONE', #164, #165, #166 ) ;
#5 = MECHANICAL_DESIGN_GEOMETRIC_PRESENTATION_REPRESENTATION (  '', ( #209 ), #115 ) ;
#6 = EDGE_CURVE ( 'NONE', #73, #34, #65, .T. ) ;
#7 = AXIS2_PLACEMENT_3D ( 'NONE', #96, #113, #114 ) ;
#8 = PRESENTATION_LAYER_ASSIGNMENT (  '', '', ( #209 ) ) ;
#9 = PRODUCT ( 'am- 4286 Sleeve - Flat to angled Front Top', 'am- 4286 Sleeve - Flat to angled Front Top', '', ( #222 ) ) ;
#10 = AXIS2_PLACEMENT_3D ( 'NONE', #173, #174, #175 ) ;
#11 = ADVANCED_FACE ( 'NONE', ( #87 ), #88, .T. ) ;
#12 = DIMENSIONAL_EXPONENTS ( 1.000000000000000000, 0.0000000000000000000, 0.0000000000000000000, 0.0000000000000000000, 0.0000000000000000000, 0.0000000000000000000, 0.0000000000000000000 ) ;
#13 =( BOUNDED_CURVE ( )  B_SPLINE_CURVE ( 3, ( #176, #177, #178, #179 ),
 .UNSPECIFIED., .F., .T. ) 
 B_SPLINE_CURVE_WITH_KNOTS ( ( 4, 4 ),
 ( 0.0000000000000000000, 3.141592653589793116 ),
 .UNSPECIFIED. ) 
 CURVE ( )  GEOMETRIC_REPRESENTATION_ITEM ( )  RATIONAL_B_SPLINE_CURVE ( ( 1.000000000000000000, 0.3333333333333333703, 0.3333333333333333703, 1.000000000000000000 ) ) 
 REPRESENTATION_ITEM ( '' )  );
#14 = ADVANCED_BREP_SHAPE_REPRESENTATION ( 'am- 4286 Sleeve - Flat to angled Front Top', ( #20, #205 ), #41 ) ;
#15 = EDGE_CURVE ( 'NONE', #77, #42, #208, .T. ) ;
#16 = CIRCLE ( 'NONE', #4, 0.6574999999999999734 ) ;
#17 = EDGE_CURVE ( 'NONE', #42, #77, #22, .T. ) ;
#18 = COLOUR_RGB ( '',0.007843137254901960675, 0.2392156862745097867, 0.8235294117647058432 ) ;
#19 = UNCERTAINTY_MEASURE_WITH_UNIT (LENGTH_MEASURE( 1.000000000000000082E-05 ), #195, 'distance_accuracy_value', 'NONE');
#20 = MANIFOLD_SOLID_BREP ( 'Cut-Extrude1', #219 ) ;
#21 = PRODUCT_DEFINITION_SHAPE ( 'NONE', 'NONE',  #215 ) ;
#22 =( BOUNDED_CURVE ( )  B_SPLINE_CURVE ( 3, ( #97, #98, #99, #100 ),
 .UNSPECIFIED., .F., .T. ) 
 B_SPLINE_CURVE_WITH_KNOTS ( ( 4, 4 ),
 ( 0.0000000000000000000, 3.141592653589793116 ),
 .UNSPECIFIED. ) 
 CURVE ( )  GEOMETRIC_REPRESENTATION_ITEM ( )  RATIONAL_B_SPLINE_CURVE ( ( 1.000000000000000000, 0.3333333333333333703, 0.3333333333333333703, 1.000000000000000000 ) ) 
 REPRESENTATION_ITEM ( '' )  );
#23 = EDGE_CURVE ( 'NONE', #40, #39, #24, .T. ) ;
#24 = CIRCLE ( 'NONE', #7, 0.5374999999999999778 ) ;
#25 = ADVANCED_FACE ( 'NONE', ( #116 ), #117, .T. ) ;
#26 = PRESENTATION_LAYER_ASSIGNMENT (  '', '', ( #111 ) ) ;
#27 = ADVANCED_FACE ( 'NONE', ( #122 ), #123, .F. ) ;
#28 = EDGE_CURVE ( 'NONE', #40, #42, #127, .T. ) ;
#29 = EDGE_CURVE ( 'NONE', #73, #74, #131, .T. ) ;
#30 = DIMENSIONAL_EXPONENTS ( 1.000000000000000000, 0.0000000000000000000, 0.0000000000000000000, 0.0000000000000000000, 0.0000000000000000000, 0.0000000000000000000, 0.0000000000000000000 ) ;
#31 = AXIS2_PLACEMENT_3D ( 'NONE', #89, #90, #91 ) ;
#32 = EDGE_CURVE ( 'NONE', #34, #38, #134, .T. ) ;
#33 = PRODUCT_DEFINITION_FORMATION_WITH_SPECIFIED_SOURCE ( 'ANY', '', #9, .NOT_KNOWN. ) ;
#34 = VERTEX_POINT ( 'NONE', #137 ) ;
#35 = EDGE_LOOP ( 'NONE', ( #66, #67 ) ) ;
#36 = EDGE_LOOP ( 'NONE', ( #55, #56, #57, #58 ) ) ;
#37 = EDGE_LOOP ( 'NONE', ( #51, #52, #53, #54 ) ) ;
#38 = VERTEX_POINT ( 'NONE', #138 ) ;
#39 = VERTEX_POINT ( 'NONE', #139 ) ;
#40 = VERTEX_POINT ( 'NONE', #140 ) ;
#41 =( GEOMETRIC_REPRESENTATION_CONTEXT ( 3 ) GLOBAL_UNCERTAINTY_ASSIGNED_CONTEXT ( ( #45 ) ) GLOBAL_UNIT_ASSIGNED_CONTEXT ( ( #182, #183, #184 ) ) REPRESENTATION_CONTEXT ( 'NONE', 'WORKASPACE' ) );
#42 = VERTEX_POINT ( 'NONE', #141 ) ;
#43 = EDGE_LOOP ( 'NONE', ( #49, #48, #46, #50 ) ) ;
#44 = EDGE_LOOP ( 'NONE', ( #71, #72 ) ) ;
#45 = UNCERTAINTY_MEASURE_WITH_UNIT (LENGTH_MEASURE( 1.000000000000000082E-05 ), #182, 'distance_accuracy_value', 'NONE');
#46 = ORIENTED_EDGE ( 'NONE', *, *, #15, .T. ) ;
#47 =( GEOMETRIC_REPRESENTATION_CONTEXT ( 3 ) GLOBAL_UNCERTAINTY_ASSIGNED_CONTEXT ( ( #19 ) ) GLOBAL_UNIT_ASSIGNED_CONTEXT ( ( #195, #196, #197 ) ) REPRESENTATION_CONTEXT ( 'NONE', 'WORKASPACE' ) );
#48 = ORIENTED_EDGE ( 'NONE', *, *, #69, .T. ) ;
#49 = ORIENTED_EDGE ( 'NONE', *, *, #23, .T. ) ;
#50 = ORIENTED_EDGE ( 'NONE', *, *, #28, .F. ) ;
#51 = ORIENTED_EDGE ( 'NONE', *, *, #6, .F. ) ;
#52 = ORIENTED_EDGE ( 'NONE', *, *, #29, .T. ) ;
#53 = ORIENTED_EDGE ( 'NONE', *, *, #223, .F. ) ;
#54 = ORIENTED_EDGE ( 'NONE', *, *, #32, .F. ) ;
#55 = ORIENTED_EDGE ( 'NONE', *, *, #29, .F. ) ;
#56 = ORIENTED_EDGE ( 'NONE', *, *, #162, .F. ) ;
#57 = ORIENTED_EDGE ( 'NONE', *, *, #32, .T. ) ;
#58 = ORIENTED_EDGE ( 'NONE', *, *, #2, .F. ) ;
#59 = ORIENTED_EDGE ( 'NONE', *, *, #69, .F. ) ;
#60 = ORIENTED_EDGE ( 'NONE', *, *, #218, .T. ) ;
#61 = ORIENTED_EDGE ( 'NONE', *, *, #28, .T. ) ;
#62 = ORIENTED_EDGE ( 'NONE', *, *, #17, .T. ) ;
#63 = ORIENTED_EDGE ( 'NONE', *, *, #162, .T. ) ;
#64 = ORIENTED_EDGE ( 'NONE', *, *, #6, .T. ) ;
#65 = CIRCLE ( 'NONE', #210, 0.6574999999999999734 ) ;
#66 = ORIENTED_EDGE ( 'NONE', *, *, #23, .F. ) ;
#67 = ORIENTED_EDGE ( 'NONE', *, *, #218, .F. ) ;
#68 = ORIENTED_EDGE ( 'NONE', *, *, #17, .F. ) ;
#69 = EDGE_CURVE ( 'NONE', #39, #77, #142, .T. ) ;
#70 = ORIENTED_EDGE ( 'NONE', *, *, #15, .F. ) ;
#71 = ORIENTED_EDGE ( 'NONE', *, *, #223, .T. ) ;
#72 = ORIENTED_EDGE ( 'NONE', *, *, #2, .T. ) ;
#73 = VERTEX_POINT ( 'NONE', #147 ) ;
#74 = VERTEX_POINT ( 'NONE', #148 ) ;
#75 = AXIS2_PLACEMENT_3D ( 'NONE', #154, #155, #156 ) ;
#76 = EDGE_LOOP ( 'NONE', ( #59, #60, #61, #62 ) ) ;
#77 = VERTEX_POINT ( 'NONE', #149 ) ;
#78 = EDGE_LOOP ( 'NONE', ( #63, #64 ) ) ;
#79 = EDGE_LOOP ( 'NONE', ( #68, #70 ) ) ;
#80 = CARTESIAN_POINT ( 'NONE',  ( 0.0000000000000000000, 2.714500000000000135, 0.0000000000000000000 ) ) ;
#81 = CARTESIAN_POINT ( 'NONE',  ( 8.052052704393848613E-17, -1.399500000000015953, 0.6574999999999999734 ) ) ;
#82 = CARTESIAN_POINT ( 'NONE',  ( -1.314999999999999725, -1.399500000000015287, 0.6575000000000001954 ) ) ;
#83 = CARTESIAN_POINT ( 'NONE',  ( -1.314999999999999725, -2.714500000000000579, -0.6574999999999999734 ) ) ;
#84 = CARTESIAN_POINT ( 'NONE',  ( 0.0000000000000000000, -2.714500000000000135, -0.6574999999999999734 ) ) ;
#85 = DIRECTION ( 'NONE',  ( 0.0000000000000000000, 1.000000000000000000, 0.0000000000000000000 ) ) ;
#86 = DIRECTION ( 'NONE',  ( 0.0000000000000000000, 0.0000000000000000000, 1.000000000000000000 ) ) ;
#87 = FACE_OUTER_BOUND ( 'NONE', #37, .T. ) ;
#88 = CYLINDRICAL_SURFACE ( 'NONE', #31, 0.6574999999999999734 ) ;
#89 = CARTESIAN_POINT ( 'NONE',  ( 0.0000000000000000000, 2.714500000000000135, 0.0000000000000000000 ) ) ;
#90 = DIRECTION ( 'NONE',  ( -0.0000000000000000000, -1.000000000000000000, -0.0000000000000000000 ) ) ;
#91 = DIRECTION ( 'NONE',  ( 0.0000000000000000000, 0.0000000000000000000, -1.000000000000000000 ) ) ;
#92 = CARTESIAN_POINT ( 'NONE',  ( 6.582476545417024321E-17, -1.519500000000014284, 0.5374999999999999778 ) ) ;
#93 = CARTESIAN_POINT ( 'NONE',  ( -1.074999999999999956, -1.519500000000014062, 0.5375000000000000888 ) ) ;
#94 = CARTESIAN_POINT ( 'NONE',  ( -1.074999999999999956, -2.594500000000002249, -0.5374999999999999778 ) ) ;
#95 = CARTESIAN_POINT ( 'NONE',  ( 0.0000000000000000000, -2.594500000000001361, -0.5374999999999999778 ) ) ;
#96 = CARTESIAN_POINT ( 'NONE',  ( 0.0000000000000000000, 2.714500000000000135, 0.0000000000000000000 ) ) ;
#97 = CARTESIAN_POINT ( 'NONE',  ( 0.0000000000000000000, -2.594500000000001361, -0.5374999999999999778 ) ) ;
#98 = CARTESIAN_POINT ( 'NONE',  ( 1.074999999999999956, -2.594500000000002249, -0.5374999999999999778 ) ) ;
#99 = CARTESIAN_POINT ( 'NONE',  ( 1.074999999999999956, -1.519500000000014062, 0.5374999999999999778 ) ) ;
#100 = CARTESIAN_POINT ( 'NONE',  ( 6.582476545417024321E-17, -1.519500000000014284, 0.5374999999999999778 ) ) ;
#101 = FILL_AREA_STYLE_COLOUR ( '', #212 ) ;
#102 = FILL_AREA_STYLE ('',( #101 ) ) ;
#103 = SURFACE_STYLE_FILL_AREA ( #102 ) ;
#104 = SURFACE_SIDE_STYLE ('',( #103 ) ) ;
#105 = SURFACE_STYLE_USAGE ( .BOTH. , #104 ) ;
#106 = PRESENTATION_STYLE_ASSIGNMENT (( #105 ) ) ;
#107 =( LENGTH_UNIT ( ) NAMED_UNIT ( * ) SI_UNIT ( $, .METRE. ) );
#108 = LENGTH_MEASURE_WITH_UNIT ( LENGTH_MEASURE( 0.02539999999999999897 ), #107 );
#109 =( CONVERSION_BASED_UNIT ( 'INCH', #108 ) LENGTH_UNIT ( ) NAMED_UNIT ( #213 ) );
#110 =( NAMED_UNIT ( * ) PLANE_ANGLE_UNIT ( ) SI_UNIT ( $, .RADIAN. ) );
#111 = STYLED_ITEM ( 'NONE', ( #192 ), #14 ) ;
#112 =( NAMED_UNIT ( * ) SI_UNIT ( $, .STERADIAN. ) SOLID_ANGLE_UNIT ( ) );
#113 = DIRECTION ( 'NONE',  ( 0.0000000000000000000, 1.000000000000000000, 0.0000000000000000000 ) ) ;
#114 = DIRECTION ( 'NONE',  ( 0.0000000000000000000, 0.0000000000000000000, 1.000000000000000000 ) ) ;
#115 =( GEOMETRIC_REPRESENTATION_CONTEXT ( 3 ) GLOBAL_UNCERTAINTY_ASSIGNED_CONTEXT ( ( #163 ) ) GLOBAL_UNIT_ASSIGNED_CONTEXT ( ( #109, #110, #112 ) ) REPRESENTATION_CONTEXT ( 'NONE', 'WORKASPACE' ) );
#116 = FACE_OUTER_BOUND ( 'NONE', #36, .T. ) ;
#117 = CYLINDRICAL_SURFACE ( 'NONE', #207, 0.6574999999999999734 ) ;
#118 = CARTESIAN_POINT ( 'NONE',  ( 0.0000000000000000000, 2.714500000000000135, 0.0000000000000000000 ) ) ;
#119 = DIRECTION ( 'NONE',  ( -0.0000000000000000000, -1.000000000000000000, -0.0000000000000000000 ) ) ;
#120 = DIRECTION ( 'NONE',  ( 0.0000000000000000000, 0.0000000000000000000, -1.000000000000000000 ) ) ;
#121 = ADVANCED_FACE ( 'NONE', ( #151, #152 ), #153, .T. ) ;
#122 = FACE_OUTER_BOUND ( 'NONE', #43, .T. ) ;
#123 = CYLINDRICAL_SURFACE ( 'NONE', #216, 0.5374999999999999778 ) ;
#124 = CARTESIAN_POINT ( 'NONE',  ( 0.0000000000000000000, 2.714500000000000135, 0.0000000000000000000 ) ) ;
#125 = DIRECTION ( 'NONE',  ( -0.0000000000000000000, -1.000000000000000000, -0.0000000000000000000 ) ) ;
#126 = DIRECTION ( 'NONE',  ( 0.0000000000000000000, 0.0000000000000000000, -1.000000000000000000 ) ) ;
#127 = LINE ( 'NONE', #128, #186 ) ;
#128 = CARTESIAN_POINT ( 'NONE',  ( 0.0000000000000000000, 2.714500000000000135, -0.5374999999999999778 ) ) ;
#129 = DIRECTION ( 'NONE',  ( -0.0000000000000000000, -1.000000000000000000, -0.0000000000000000000 ) ) ;
#130 = ADVANCED_FACE ( 'NONE', ( #157 ), #158, .F. ) ;
#131 = LINE ( 'NONE', #132, #211 ) ;
#132 = CARTESIAN_POINT ( 'NONE',  ( 8.052052704393848613E-17, 2.714500000000000135, 0.6574999999999999734 ) ) ;
#133 = DIRECTION ( 'NONE',  ( -0.0000000000000000000, -1.000000000000000000, -0.0000000000000000000 ) ) ;
#134 = LINE ( 'NONE', #135, #150 ) ;
#135 = CARTESIAN_POINT ( 'NONE',  ( 0.0000000000000000000, 2.714500000000000135, -0.6574999999999999734 ) ) ;
#136 = DIRECTION ( 'NONE',  ( -0.0000000000000000000, -1.000000000000000000, -0.0000000000000000000 ) ) ;
#137 = CARTESIAN_POINT ( 'NONE',  ( 0.0000000000000000000, 2.714500000000000135, -0.6574999999999999734 ) ) ;
#138 = CARTESIAN_POINT ( 'NONE',  ( 0.0000000000000000000, -2.714500000000000135, -0.6574999999999999734 ) ) ;
#139 = CARTESIAN_POINT ( 'NONE',  ( 6.582476545417024321E-17, 2.714500000000000135, 0.5374999999999999778 ) ) ;
#140 = CARTESIAN_POINT ( 'NONE',  ( 0.0000000000000000000, 2.714500000000000135, -0.5374999999999999778 ) ) ;
#141 = CARTESIAN_POINT ( 'NONE',  ( 0.0000000000000000000, -2.594500000000001361, -0.5374999999999999778 ) ) ;
#142 = LINE ( 'NONE', #144, #203 ) ;
#143 = APPLICATION_CONTEXT ( 'automotive_design' ) ;
#144 = CARTESIAN_POINT ( 'NONE',  ( 6.582476545417024321E-17, 2.714500000000000135, 0.5374999999999999778 ) ) ;
#145 = DIRECTION ( 'NONE',  ( -0.0000000000000000000, -1.000000000000000000, -0.0000000000000000000 ) ) ;
#146 = APPLICATION_CONTEXT ( 'automotive_design' ) ;
#147 = CARTESIAN_POINT ( 'NONE',  ( 8.052052704393848613E-17, 2.714500000000000135, 0.6574999999999999734 ) ) ;
#148 = CARTESIAN_POINT ( 'NONE',  ( 8.052052704393848613E-17, -1.399500000000015953, 0.6574999999999999734 ) ) ;
#149 = CARTESIAN_POINT ( 'NONE',  ( 6.582476545417024321E-17, -1.519500000000014284, 0.5374999999999999778 ) ) ;
#150 = VECTOR ( 'NONE', #136, 39.37007874015748143 ) ;
#151 = FACE_BOUND ( 'NONE', #79, .T. ) ;
#152 = FACE_OUTER_BOUND ( 'NONE', #44, .T. ) ;
#153 = PLANE ( 'NONE',  #75 ) ;
#154 = CARTESIAN_POINT ( 'NONE',  ( 7.173354667622396263, -2.714500000000000135, -0.6574999999999999734 ) ) ;
#155 = DIRECTION ( 'NONE',  ( 0.0000000000000000000, -0.7071067811865515695, 0.7071067811865434649 ) ) ;
#156 = DIRECTION ( 'NONE',  ( 0.0000000000000000000, -0.7071067811865434649, -0.7071067811865515695 ) ) ;
#157 = FACE_OUTER_BOUND ( 'NONE', #76, .T. ) ;
#158 = CYLINDRICAL_SURFACE ( 'NONE', #204, 0.5374999999999999778 ) ;
#159 = CARTESIAN_POINT ( 'NONE',  ( 0.0000000000000000000, 2.714500000000000135, 0.0000000000000000000 ) ) ;
#160 = DIRECTION ( 'NONE',  ( -0.0000000000000000000, -1.000000000000000000, -0.0000000000000000000 ) ) ;
#161 = DIRECTION ( 'NONE',  ( 0.0000000000000000000, 0.0000000000000000000, -1.000000000000000000 ) ) ;
#162 = EDGE_CURVE ( 'NONE', #34, #73, #16, .T. ) ;
#163 = UNCERTAINTY_MEASURE_WITH_UNIT (LENGTH_MEASURE( 1.000000000000000082E-05 ), #109, 'distance_accuracy_value', 'NONE');
#164 = CARTESIAN_POINT ( 'NONE',  ( 0.0000000000000000000, 2.714500000000000135, 0.0000000000000000000 ) ) ;
#165 = DIRECTION ( 'NONE',  ( 0.0000000000000000000, 1.000000000000000000, 0.0000000000000000000 ) ) ;
#166 = DIRECTION ( 'NONE',  ( 0.0000000000000000000, 0.0000000000000000000, 1.000000000000000000 ) ) ;
#167 = CARTESIAN_POINT ( 'NONE',  ( 0.0000000000000000000, 2.714500000000000135, 0.0000000000000000000 ) ) ;
#168 = DIRECTION ( 'NONE',  ( 0.0000000000000000000, 1.000000000000000000, 0.0000000000000000000 ) ) ;
#169 = DIRECTION ( 'NONE',  ( 0.0000000000000000000, 0.0000000000000000000, 1.000000000000000000 ) ) ;
#170 = FACE_OUTER_BOUND ( 'NONE', #78, .T. ) ;
#171 = FACE_BOUND ( 'NONE', #35, .T. ) ;
#172 = PLANE ( 'NONE',  #10 ) ;
#173 = CARTESIAN_POINT ( 'NONE',  ( 0.0000000000000000000, 2.714500000000000135, 0.0000000000000000000 ) ) ;
#174 = DIRECTION ( 'NONE',  ( 0.0000000000000000000, 1.000000000000000000, 0.0000000000000000000 ) ) ;
#175 = DIRECTION ( 'NONE',  ( 0.0000000000000000000, -0.0000000000000000000, 1.000000000000000000 ) ) ;
#176 = CARTESIAN_POINT ( 'NONE',  ( 0.0000000000000000000, -2.714500000000000135, -0.6574999999999999734 ) ) ;
#177 = CARTESIAN_POINT ( 'NONE',  ( 1.314999999999999725, -2.714500000000000579, -0.6574999999999999734 ) ) ;
#178 = CARTESIAN_POINT ( 'NONE',  ( 1.314999999999999725, -1.399500000000015731, 0.6574999999999998623 ) ) ;
#179 = CARTESIAN_POINT ( 'NONE',  ( 8.052052704393848613E-17, -1.399500000000015953, 0.6574999999999999734 ) ) ;
#180 =( LENGTH_UNIT ( ) NAMED_UNIT ( * ) SI_UNIT ( $, .METRE. ) );
#181 = LENGTH_MEASURE_WITH_UNIT ( LENGTH_MEASURE( 0.02539999999999999897 ), #180 );
#182 =( CONVERSION_BASED_UNIT ( 'INCH', #181 ) LENGTH_UNIT ( ) NAMED_UNIT ( #30 ) );
#183 =( NAMED_UNIT ( * ) PLANE_ANGLE_UNIT ( ) SI_UNIT ( $, .RADIAN. ) );
#184 =( NAMED_UNIT ( * ) SI_UNIT ( $, .STERADIAN. ) SOLID_ANGLE_UNIT ( ) );
#185 = APPLICATION_PROTOCOL_DEFINITION ( 'draft international standard', 'automotive_design', 1998, #143 ) ;
#186 = VECTOR ( 'NONE', #129, 39.37007874015748143 ) ;
#187 = FILL_AREA_STYLE_COLOUR ( '', #18 ) ;
#188 = FILL_AREA_STYLE ('',( #187 ) ) ;
#189 = SURFACE_STYLE_FILL_AREA ( #188 ) ;
#190 = SURFACE_SIDE_STYLE ('',( #189 ) ) ;
#191 = SURFACE_STYLE_USAGE ( .BOTH. , #190 ) ;
#192 = PRESENTATION_STYLE_ASSIGNMENT (( #191 ) ) ;
#193 =( LENGTH_UNIT ( ) NAMED_UNIT ( * ) SI_UNIT ( $, .METRE. ) );
#194 = LENGTH_MEASURE_WITH_UNIT ( LENGTH_MEASURE( 0.02539999999999999897 ), #193 );
#195 =( CONVERSION_BASED_UNIT ( 'INCH', #194 ) LENGTH_UNIT ( ) NAMED_UNIT ( #12 ) );
#196 =( NAMED_UNIT ( * ) PLANE_ANGLE_UNIT ( ) SI_UNIT ( $, .RADIAN. ) );
#197 =( NAMED_UNIT ( * ) SI_UNIT ( $, .STERADIAN. ) SOLID_ANGLE_UNIT ( ) );
#198 = CARTESIAN_POINT ( 'NONE',  ( 0.0000000000000000000, 0.0000000000000000000, 0.0000000000000000000 ) ) ;
#199 = DIRECTION ( 'NONE',  ( 0.0000000000000000000, 0.0000000000000000000, 1.000000000000000000 ) ) ;
#200 = APPLICATION_PROTOCOL_DEFINITION ( 'draft international standard', 'automotive_design', 1998, #146 ) ;
#201 = DIRECTION ( 'NONE',  ( 1.000000000000000000, 0.0000000000000000000, 0.0000000000000000000 ) ) ;
#202 = SHAPE_DEFINITION_REPRESENTATION ( #21, #14 ) ;
#203 = VECTOR ( 'NONE', #145, 39.37007874015748143 ) ;
#204 = AXIS2_PLACEMENT_3D ( 'NONE', #159, #160, #161 ) ;
#205 = AXIS2_PLACEMENT_3D ( 'NONE', #198, #199, #201 ) ;
#206 = AXIS2_PLACEMENT_3D ( 'NONE', #167, #168, #169 ) ;
#207 = AXIS2_PLACEMENT_3D ( 'NONE', #118, #119, #120 ) ;
#208 =( BOUNDED_CURVE ( )  B_SPLINE_CURVE ( 3, ( #92, #93, #94, #95 ),
 .UNSPECIFIED., .F., .T. ) 
 B_SPLINE_CURVE_WITH_KNOTS ( ( 4, 4 ),
 ( 3.141592653589793116, 6.283185307179586232 ),
 .UNSPECIFIED. ) 
 CURVE ( )  GEOMETRIC_REPRESENTATION_ITEM ( )  RATIONAL_B_SPLINE_CURVE ( ( 1.000000000000000000, 0.3333333333333333703, 0.3333333333333333703, 1.000000000000000000 ) ) 
 REPRESENTATION_ITEM ( '' )  );
#209 = STYLED_ITEM ( 'NONE', ( #106 ), #20 ) ;
#210 = AXIS2_PLACEMENT_3D ( 'NONE', #80, #85, #86 ) ;
#211 = VECTOR ( 'NONE', #133, 39.37007874015748143 ) ;
#212 = COLOUR_RGB ( '',0.007843137254901960675, 0.2392156862745097867, 0.8235294117647058432 ) ;
#213 = DIMENSIONAL_EXPONENTS ( 1.000000000000000000, 0.0000000000000000000, 0.0000000000000000000, 0.0000000000000000000, 0.0000000000000000000, 0.0000000000000000000, 0.0000000000000000000 ) ;
#214 = MECHANICAL_DESIGN_GEOMETRIC_PRESENTATION_REPRESENTATION (  '', ( #111 ), #47 ) ;
#215 = PRODUCT_DEFINITION ( 'UNKNOWN', '', #33, #221 ) ;
#216 = AXIS2_PLACEMENT_3D ( 'NONE', #124, #125, #126 ) ;
#217 = PRODUCT_RELATED_PRODUCT_CATEGORY ( 'part', '', ( #9 ) ) ;
#218 = EDGE_CURVE ( 'NONE', #39, #40, #3, .T. ) ;
#219 = CLOSED_SHELL ( 'NONE', ( #27, #11, #25, #130, #220, #121 ) ) ;
#220 = ADVANCED_FACE ( 'NONE', ( #170, #171 ), #172, .T. ) ;
#221 = PRODUCT_DEFINITION_CONTEXT ( 'detailed design', #146, 'design' ) ;
#222 = PRODUCT_CONTEXT ( 'NONE', #143, 'mechanical' ) ;
#223 = EDGE_CURVE ( 'NONE', #38, #74, #13, .T. ) ;
ENDSEC;
END-ISO-10303-21;
