ISO-10303-21;
HEADER;
FILE_DESCRIPTION (( 'STEP AP214' ),
    '1' );
FILE_NAME ('am-4285 Sleeve - Flat to angled Back Top.STEP',
    '2020-05-08T20:13:28',
    ( '' ),
    ( '' ),
    'SwSTEP 2.0',
    'SolidWorks 2019',
    '' );
FILE_SCHEMA (( 'AUTOMOTIVE_DESIGN' ));
ENDSEC;

DATA;
#1 = CIRCLE ( 'NONE', #176, 0.5374999999999999778 ) ;
#2 = EDGE_CURVE ( 'NONE', #147, #197, #51, .T. ) ;
#3 = FILL_AREA_STYLE ('',( #109 ) ) ;
#4 = PRESENTATION_STYLE_ASSIGNMENT (( #25 ) ) ;
#5 = CARTESIAN_POINT ( 'NONE',  ( 8.052052704393848613E-17, 7.527000000000000135, 0.6574999999999999734 ) ) ;
#6 = EDGE_CURVE ( 'NONE', #194, #145, #121, .T. ) ;
#7 = CIRCLE ( 'NONE', #133, 0.6574999999999999734 ) ;
#8 = PLANE ( 'NONE',  #14 ) ;
#9 = CARTESIAN_POINT ( 'NONE',  ( 8.052052704393848613E-17, 7.527000000000000135, 0.6574999999999999734 ) ) ;
#10 = STYLED_ITEM ( 'NONE', ( #161 ), #126 ) ;
#11 = CARTESIAN_POINT ( 'NONE',  ( 0.0000000000000000000, -7.526999999999997470, -0.6574999999999999734 ) ) ;
#12 = PRODUCT_DEFINITION ( 'UNKNOWN', '', #18, #24 ) ;
#13 = DIMENSIONAL_EXPONENTS ( 1.000000000000000000, 0.0000000000000000000, 0.0000000000000000000, 0.0000000000000000000, 0.0000000000000000000, 0.0000000000000000000, 0.0000000000000000000 ) ;
#14 = AXIS2_PLACEMENT_3D ( 'NONE', #106, #96, #97 ) ;
#15 = ADVANCED_FACE ( 'NONE', ( #49, #42 ), #108, .T. ) ;
#16 = EDGE_CURVE ( 'NONE', #41, #197, #102, .T. ) ;
#17 = COLOUR_RGB ( '',0.007843137254901960675, 0.2392156862745097867, 0.8235294117647058432 ) ;
#18 = PRODUCT_DEFINITION_FORMATION_WITH_SPECIFIED_SOURCE ( 'ANY', '', #137, .NOT_KNOWN. ) ;
#19 = CARTESIAN_POINT ( 'NONE',  ( 0.0000000000000000000, 7.527000000000000135, -0.6574999999999999734 ) ) ;
#20 = VECTOR ( 'NONE', #138, 39.37007874015748143 ) ;
#21 = PRODUCT_RELATED_PRODUCT_CATEGORY ( 'part', '', ( #137 ) ) ;
#22 = UNCERTAINTY_MEASURE_WITH_UNIT (LENGTH_MEASURE( 1.000000000000000082E-05 ), #129, 'distance_accuracy_value', 'NONE');
#23 = CARTESIAN_POINT ( 'NONE',  ( 0.0000000000000000000, 7.527000000000000135, -0.5374999999999999778 ) ) ;
#24 = PRODUCT_DEFINITION_CONTEXT ( 'detailed design', #166, 'design' ) ;
#25 = SURFACE_STYLE_USAGE ( .BOTH. , #188 ) ;
#26 = CARTESIAN_POINT ( 'NONE',  ( 0.0000000000000000000, -7.526999999999997470, -0.6574999999999999734 ) ) ;
#27 = UNCERTAINTY_MEASURE_WITH_UNIT (LENGTH_MEASURE( 1.000000000000000082E-05 ), #39, 'distance_accuracy_value', 'NONE');
#28 = CIRCLE ( 'NONE', #69, 0.6574999999999999734 ) ;
#29 = DIRECTION ( 'NONE',  ( 0.0000000000000000000, 0.0000000000000000000, 1.000000000000000000 ) ) ;
#30 = PRODUCT_DEFINITION_SHAPE ( 'NONE', 'NONE',  #12 ) ;
#31 = PRESENTATION_LAYER_ASSIGNMENT (  '', '', ( #10 ) ) ;
#32 = MECHANICAL_DESIGN_GEOMETRIC_PRESENTATION_REPRESENTATION (  '', ( #10 ), #140 ) ;
#33 = VECTOR ( 'NONE', #44, 39.37007874015748143 ) ;
#34 = COLOUR_RGB ( '',0.007843137254901960675, 0.2392156862745097867, 0.8235294117647058432 ) ;
#35 = ADVANCED_FACE ( 'NONE', ( #85 ), #67, .F. ) ;
#36 = AXIS2_PLACEMENT_3D ( 'NONE', #105, #104, #103 ) ;
#37 = DIRECTION ( 'NONE',  ( -0.0000000000000000000, -1.000000000000000000, -0.0000000000000000000 ) ) ;
#38 =( LENGTH_UNIT ( ) NAMED_UNIT ( * ) SI_UNIT ( $, .METRE. ) );
#39 =( CONVERSION_BASED_UNIT ( 'INCH', #40 ) LENGTH_UNIT ( ) NAMED_UNIT ( #101 ) );
#40 = LENGTH_MEASURE_WITH_UNIT ( LENGTH_MEASURE( 0.02539999999999999897 ), #38 );
#41 = VERTEX_POINT ( 'NONE', #5 ) ;
#42 = FACE_BOUND ( 'NONE', #150, .T. ) ;
#43 = CARTESIAN_POINT ( 'NONE',  ( 0.0000000000000000000, 7.527000000000000135, -0.5374999999999999778 ) ) ;
#44 = DIRECTION ( 'NONE',  ( -0.0000000000000000000, -1.000000000000000000, -0.0000000000000000000 ) ) ;
#45 = CARTESIAN_POINT ( 'NONE',  ( 8.052052704393848613E-17, -6.212000000000012179, 0.6574999999999999734 ) ) ;
#46 = LINE ( 'NONE', #43, #20 ) ;
#47 = CARTESIAN_POINT ( 'NONE',  ( -1.314999999999999725, -6.212000000000012179, 0.6575000000000001954 ) ) ;
#48 = CARTESIAN_POINT ( 'NONE',  ( -1.314999999999999725, -7.527000000000001911, -0.6574999999999999734 ) ) ;
#49 = FACE_OUTER_BOUND ( 'NONE', #211, .T. ) ;
#50 = CARTESIAN_POINT ( 'NONE',  ( 0.0000000000000000000, -7.526999999999997470, -0.6574999999999999734 ) ) ;
#51 =( BOUNDED_CURVE ( )  B_SPLINE_CURVE ( 3, ( #50, #118, #56, #53 ),
 .UNSPECIFIED., .F., .T. ) 
 B_SPLINE_CURVE_WITH_KNOTS ( ( 4, 4 ),
 ( 0.0000000000000000000, 3.141592653589793116 ),
 .UNSPECIFIED. ) 
 CURVE ( )  GEOMETRIC_REPRESENTATION_ITEM ( )  RATIONAL_B_SPLINE_CURVE ( ( 1.000000000000000000, 0.3333333333333333703, 0.3333333333333333703, 1.000000000000000000 ) ) 
 REPRESENTATION_ITEM ( '' )  );
#52 = DIRECTION ( 'NONE',  ( 0.0000000000000000000, 1.000000000000000000, 0.0000000000000000000 ) ) ;
#53 = CARTESIAN_POINT ( 'NONE',  ( 8.052052704393848613E-17, -6.212000000000012179, 0.6574999999999999734 ) ) ;
#54 = EDGE_LOOP ( 'NONE', ( #212, #151 ) ) ;
#55 = AXIS2_PLACEMENT_3D ( 'NONE', #218, #216, #214 ) ;
#56 = CARTESIAN_POINT ( 'NONE',  ( 1.314999999999999725, -6.212000000000012179, 0.6574999999999998623 ) ) ;
#57 = EDGE_CURVE ( 'NONE', #167, #59, #63, .T. ) ;
#58 = DIRECTION ( 'NONE',  ( 0.0000000000000000000, 0.0000000000000000000, 1.000000000000000000 ) ) ;
#59 = VERTEX_POINT ( 'NONE', #189 ) ;
#60 = ORIENTED_EDGE ( 'NONE', *, *, #154, .F. ) ;
#61 = PRESENTATION_LAYER_ASSIGNMENT (  '', '', ( #169 ) ) ;
#62 = APPLICATION_PROTOCOL_DEFINITION ( 'draft international standard', 'automotive_design', 1998, #160 ) ;
#63 =( BOUNDED_CURVE ( )  B_SPLINE_CURVE ( 3, ( #184, #185, #183, #72 ),
 .UNSPECIFIED., .F., .T. ) 
 B_SPLINE_CURVE_WITH_KNOTS ( ( 4, 4 ),
 ( 0.0000000000000000000, 3.141592653589793116 ),
 .UNSPECIFIED. ) 
 CURVE ( )  GEOMETRIC_REPRESENTATION_ITEM ( )  RATIONAL_B_SPLINE_CURVE ( ( 1.000000000000000000, 0.3333333333333333703, 0.3333333333333333703, 1.000000000000000000 ) ) 
 REPRESENTATION_ITEM ( '' )  );
#64 = CYLINDRICAL_SURFACE ( 'NONE', #168, 0.6574999999999999734 ) ;
#65 = FACE_OUTER_BOUND ( 'NONE', #54, .T. ) ;
#66 =( NAMED_UNIT ( * ) SI_UNIT ( $, .STERADIAN. ) SOLID_ANGLE_UNIT ( ) );
#67 = CYLINDRICAL_SURFACE ( 'NONE', #125, 0.5374999999999999778 ) ;
#68 = DIRECTION ( 'NONE',  ( 0.0000000000000000000, 0.0000000000000000000, -1.000000000000000000 ) ) ;
#69 = AXIS2_PLACEMENT_3D ( 'NONE', #98, #99, #29 ) ;
#70 = ADVANCED_FACE ( 'NONE', ( #73 ), #64, .T. ) ;
#71 = CARTESIAN_POINT ( 'NONE',  ( 0.0000000000000000000, 7.527000000000000135, 0.0000000000000000000 ) ) ;
#72 = CARTESIAN_POINT ( 'NONE',  ( 6.582476545417024321E-17, -6.332000000000009621, 0.5374999999999999778 ) ) ;
#73 = FACE_OUTER_BOUND ( 'NONE', #152, .T. ) ;
#74 = DIRECTION ( 'NONE',  ( 0.0000000000000000000, 0.0000000000000000000, -1.000000000000000000 ) ) ;
#75 = DIRECTION ( 'NONE',  ( -0.0000000000000000000, -1.000000000000000000, -0.0000000000000000000 ) ) ;
#76 = DIRECTION ( 'NONE',  ( 0.0000000000000000000, 1.000000000000000000, 0.0000000000000000000 ) ) ;
#77 = DIRECTION ( 'NONE',  ( 0.0000000000000000000, 1.000000000000000000, 0.0000000000000000000 ) ) ;
#78 = DIRECTION ( 'NONE',  ( 0.0000000000000000000, 0.0000000000000000000, 1.000000000000000000 ) ) ;
#79 = FACE_OUTER_BOUND ( 'NONE', #171, .T. ) ;
#80 = CARTESIAN_POINT ( 'NONE',  ( -1.074999999999999956, -7.407000000000001805, -0.5374999999999999778 ) ) ;
#81 = CARTESIAN_POINT ( 'NONE',  ( 0.0000000000000000000, 7.527000000000000135, 0.0000000000000000000 ) ) ;
#82 = DIRECTION ( 'NONE',  ( -0.0000000000000000000, -1.000000000000000000, -0.0000000000000000000 ) ) ;
#83 = EDGE_CURVE ( 'NONE', #146, #41, #7, .T. ) ;
#84 = DIRECTION ( 'NONE',  ( -0.0000000000000000000, -1.000000000000000000, -0.0000000000000000000 ) ) ;
#85 = FACE_OUTER_BOUND ( 'NONE', #199, .T. ) ;
#86 = CYLINDRICAL_SURFACE ( 'NONE', #120, 0.5374999999999999778 ) ;
#87 = CARTESIAN_POINT ( 'NONE',  ( 0.0000000000000000000, 7.527000000000000135, 0.0000000000000000000 ) ) ;
#88 = CARTESIAN_POINT ( 'NONE',  ( 0.0000000000000000000, 7.527000000000000135, 0.0000000000000000000 ) ) ;
#89 =( CONVERSION_BASED_UNIT ( 'INCH', #135 ) LENGTH_UNIT ( ) NAMED_UNIT ( #159 ) );
#90 =( NAMED_UNIT ( * ) PLANE_ANGLE_UNIT ( ) SI_UNIT ( $, .RADIAN. ) );
#91 = SURFACE_STYLE_FILL_AREA ( #178 ) ;
#92 = CARTESIAN_POINT ( 'NONE',  ( 0.0000000000000000000, 7.527000000000000135, 0.0000000000000000000 ) ) ;
#93 = CARTESIAN_POINT ( 'NONE',  ( -1.074999999999999956, -6.332000000000012285, 0.5375000000000000888 ) ) ;
#94 = CARTESIAN_POINT ( 'NONE',  ( 6.582476545417024321E-17, -6.332000000000009621, 0.5374999999999999778 ) ) ;
#95 = CARTESIAN_POINT ( 'NONE',  ( 0.0000000000000000000, -7.407000000000000028, -0.5374999999999999778 ) ) ;
#96 = DIRECTION ( 'NONE',  ( 0.0000000000000000000, -0.7071067811865509034, 0.7071067811865441310 ) ) ;
#97 = DIRECTION ( 'NONE',  ( 0.0000000000000000000, -0.7071067811865441310, -0.7071067811865509034 ) ) ;
#98 = CARTESIAN_POINT ( 'NONE',  ( 0.0000000000000000000, 7.527000000000000135, 0.0000000000000000000 ) ) ;
#99 = DIRECTION ( 'NONE',  ( 0.0000000000000000000, 1.000000000000000000, 0.0000000000000000000 ) ) ;
#100 = DIRECTION ( 'NONE',  ( 0.0000000000000000000, 0.0000000000000000000, 1.000000000000000000 ) ) ;
#102 = LINE ( 'NONE', #9, #142 ) ;
#101 = DIMENSIONAL_EXPONENTS ( 1.000000000000000000, 0.0000000000000000000, 0.0000000000000000000, 0.0000000000000000000, 0.0000000000000000000, 0.0000000000000000000, 0.0000000000000000000 ) ;
#103 = DIRECTION ( 'NONE',  ( 0.0000000000000000000, -0.0000000000000000000, 1.000000000000000000 ) ) ;
#104 = DIRECTION ( 'NONE',  ( 0.0000000000000000000, 1.000000000000000000, 0.0000000000000000000 ) ) ;
#105 = CARTESIAN_POINT ( 'NONE',  ( 0.0000000000000000000, 7.527000000000000135, 0.0000000000000000000 ) ) ;
#106 = CARTESIAN_POINT ( 'NONE',  ( 18.96054151059509962, -7.527000000000000135, -0.6574999999999999734 ) ) ;
#107 = SURFACE_STYLE_FILL_AREA ( #3 ) ;
#108 = PLANE ( 'NONE',  #36 ) ;
#109 = FILL_AREA_STYLE_COLOUR ( '', #17 ) ;
#110 = LINE ( 'NONE', #123, #134 ) ;
#111 =( NAMED_UNIT ( * ) PLANE_ANGLE_UNIT ( ) SI_UNIT ( $, .RADIAN. ) );
#112 = EDGE_CURVE ( 'NONE', #59, #167, #165, .T. ) ;
#113 =( NAMED_UNIT ( * ) SI_UNIT ( $, .STERADIAN. ) SOLID_ANGLE_UNIT ( ) );
#114 = EDGE_CURVE ( 'NONE', #145, #194, #1, .T. ) ;
#115 = FACE_OUTER_BOUND ( 'NONE', #209, .T. ) ;
#116 = CYLINDRICAL_SURFACE ( 'NONE', #172, 0.6574999999999999734 ) ;
#117 = DIRECTION ( 'NONE',  ( 0.0000000000000000000, 0.0000000000000000000, -1.000000000000000000 ) ) ;
#118 = CARTESIAN_POINT ( 'NONE',  ( 1.314999999999999725, -7.527000000000001911, -0.6574999999999999734 ) ) ;
#119 = ADVANCED_FACE ( 'NONE', ( #79 ), #86, .F. ) ;
#120 = AXIS2_PLACEMENT_3D ( 'NONE', #180, #186, #181 ) ;
#121 = CIRCLE ( 'NONE', #153, 0.5374999999999999778 ) ;
#122 =( LENGTH_UNIT ( ) NAMED_UNIT ( * ) SI_UNIT ( $, .METRE. ) );
#123 = CARTESIAN_POINT ( 'NONE',  ( 6.582476545417024321E-17, 7.527000000000000135, 0.5374999999999999778 ) ) ;
#124 = CARTESIAN_POINT ( 'NONE',  ( 6.582476545417024321E-17, 7.527000000000000135, 0.5374999999999999778 ) ) ;
#125 = AXIS2_PLACEMENT_3D ( 'NONE', #81, #82, #68 ) ;
#126 = ADVANCED_BREP_SHAPE_REPRESENTATION ( 'am-4285 Sleeve - Flat to angled Back Top', ( #148, #55 ), #163 ) ;
#127 = DIRECTION ( 'NONE',  ( -0.0000000000000000000, -1.000000000000000000, -0.0000000000000000000 ) ) ;
#128 = ADVANCED_FACE ( 'NONE', ( #182, #65 ), #8, .T. ) ;
#129 =( CONVERSION_BASED_UNIT ( 'INCH', #187 ) LENGTH_UNIT ( ) NAMED_UNIT ( #13 ) );
#130 = LINE ( 'NONE', #131, #33 ) ;
#131 = CARTESIAN_POINT ( 'NONE',  ( 0.0000000000000000000, 7.527000000000000135, -0.6574999999999999734 ) ) ;
#132 = CARTESIAN_POINT ( 'NONE',  ( 0.0000000000000000000, 7.527000000000000135, 0.0000000000000000000 ) ) ;
#133 = AXIS2_PLACEMENT_3D ( 'NONE', #87, #77, #78 ) ;
#134 = VECTOR ( 'NONE', #127, 39.37007874015748143 ) ;
#135 = LENGTH_MEASURE_WITH_UNIT ( LENGTH_MEASURE( 0.02539999999999999897 ), #122 );
#136 = CARTESIAN_POINT ( 'NONE',  ( 8.052052704393848613E-17, -6.212000000000012179, 0.6574999999999999734 ) ) ;
#137 = PRODUCT ( 'am-4285 Sleeve - Flat to angled Back Top', 'am-4285 Sleeve - Flat to angled Back Top', '', ( #213 ) ) ;
#138 = DIRECTION ( 'NONE',  ( -0.0000000000000000000, -1.000000000000000000, -0.0000000000000000000 ) ) ;
#139 = EDGE_CURVE ( 'NONE', #41, #146, #28, .T. ) ;
#140 =( GEOMETRIC_REPRESENTATION_CONTEXT ( 3 ) GLOBAL_UNCERTAINTY_ASSIGNED_CONTEXT ( ( #22 ) ) GLOBAL_UNIT_ASSIGNED_CONTEXT ( ( #129, #221, #220 ) ) REPRESENTATION_CONTEXT ( 'NONE', 'WORKASPACE' ) );
#141 = CLOSED_SHELL ( 'NONE', ( #119, #195, #70, #35, #15, #128 ) ) ;
#142 = VECTOR ( 'NONE', #84, 39.37007874015748143 ) ;
#143 =( GEOMETRIC_REPRESENTATION_CONTEXT ( 3 ) GLOBAL_UNCERTAINTY_ASSIGNED_CONTEXT ( ( #27 ) ) GLOBAL_UNIT_ASSIGNED_CONTEXT ( ( #39, #90, #113 ) ) REPRESENTATION_CONTEXT ( 'NONE', 'WORKASPACE' ) );
#144 = UNCERTAINTY_MEASURE_WITH_UNIT (LENGTH_MEASURE( 1.000000000000000082E-05 ), #89, 'distance_accuracy_value', 'NONE');
#145 = VERTEX_POINT ( 'NONE', #23 ) ;
#146 = VERTEX_POINT ( 'NONE', #19 ) ;
#147 = VERTEX_POINT ( 'NONE', #11 ) ;
#148 = MANIFOLD_SOLID_BREP ( 'Cut-Extrude1', #141 ) ;
#149 = CARTESIAN_POINT ( 'NONE',  ( 0.0000000000000000000, -7.407000000000000028, -0.5374999999999999778 ) ) ;
#150 = EDGE_LOOP ( 'NONE', ( #202, #198 ) ) ;
#151 = ORIENTED_EDGE ( 'NONE', *, *, #222, .T. ) ;
#152 = EDGE_LOOP ( 'NONE', ( #204, #206, #207, #170 ) ) ;
#153 = AXIS2_PLACEMENT_3D ( 'NONE', #71, #52, #58 ) ;
#154 = EDGE_CURVE ( 'NONE', #194, #59, #110, .T. ) ;
#155 = ORIENTED_EDGE ( 'NONE', *, *, #2, .F. ) ;
#156 = ORIENTED_EDGE ( 'NONE', *, *, #57, .T. ) ;
#157 = ORIENTED_EDGE ( 'NONE', *, *, #223, .T. ) ;
#158 = ORIENTED_EDGE ( 'NONE', *, *, #139, .T. ) ;
#159 = DIMENSIONAL_EXPONENTS ( 1.000000000000000000, 0.0000000000000000000, 0.0000000000000000000, 0.0000000000000000000, 0.0000000000000000000, 0.0000000000000000000, 0.0000000000000000000 ) ;
#160 = APPLICATION_CONTEXT ( 'automotive_design' ) ;
#161 = PRESENTATION_STYLE_ASSIGNMENT (( #164 ) ) ;
#162 = SURFACE_SIDE_STYLE ('',( #91 ) ) ;
#163 =( GEOMETRIC_REPRESENTATION_CONTEXT ( 3 ) GLOBAL_UNCERTAINTY_ASSIGNED_CONTEXT ( ( #144 ) ) GLOBAL_UNIT_ASSIGNED_CONTEXT ( ( #89, #111, #66 ) ) REPRESENTATION_CONTEXT ( 'NONE', 'WORKASPACE' ) );
#164 = SURFACE_STYLE_USAGE ( .BOTH. , #162 ) ;
#165 =( BOUNDED_CURVE ( )  B_SPLINE_CURVE ( 3, ( #94, #93, #80, #95 ),
 .UNSPECIFIED., .F., .T. ) 
 B_SPLINE_CURVE_WITH_KNOTS ( ( 4, 4 ),
 ( 3.141592653589793116, 6.283185307179586232 ),
 .UNSPECIFIED. ) 
 CURVE ( )  GEOMETRIC_REPRESENTATION_ITEM ( )  RATIONAL_B_SPLINE_CURVE ( ( 1.000000000000000000, 0.3333333333333333703, 0.3333333333333333703, 1.000000000000000000 ) ) 
 REPRESENTATION_ITEM ( '' )  );
#166 = APPLICATION_CONTEXT ( 'automotive_design' ) ;
#167 = VERTEX_POINT ( 'NONE', #149 ) ;
#168 = AXIS2_PLACEMENT_3D ( 'NONE', #88, #75, #74 ) ;
#169 = STYLED_ITEM ( 'NONE', ( #4 ), #148 ) ;
#170 = ORIENTED_EDGE ( 'NONE', *, *, #222, .F. ) ;
#171 = EDGE_LOOP ( 'NONE', ( #215, #174, #173, #217 ) ) ;
#172 = AXIS2_PLACEMENT_3D ( 'NONE', #132, #37, #117 ) ;
#173 = ORIENTED_EDGE ( 'NONE', *, *, #112, .T. ) ;
#174 = ORIENTED_EDGE ( 'NONE', *, *, #154, .T. ) ;
#175 = ORIENTED_EDGE ( 'NONE', *, *, #16, .T. ) ;
#176 = AXIS2_PLACEMENT_3D ( 'NONE', #92, #76, #100 ) ;
#177 = ORIENTED_EDGE ( 'NONE', *, *, #139, .F. ) ;
#178 = FILL_AREA_STYLE ('',( #179 ) ) ;
#179 = FILL_AREA_STYLE_COLOUR ( '', #34 ) ;
#180 = CARTESIAN_POINT ( 'NONE',  ( 0.0000000000000000000, 7.527000000000000135, 0.0000000000000000000 ) ) ;
#181 = DIRECTION ( 'NONE',  ( 0.0000000000000000000, 0.0000000000000000000, -1.000000000000000000 ) ) ;
#182 = FACE_BOUND ( 'NONE', #192, .T. ) ;
#183 = CARTESIAN_POINT ( 'NONE',  ( 1.074999999999999956, -6.332000000000012285, 0.5374999999999999778 ) ) ;
#184 = CARTESIAN_POINT ( 'NONE',  ( 0.0000000000000000000, -7.407000000000000028, -0.5374999999999999778 ) ) ;
#185 = CARTESIAN_POINT ( 'NONE',  ( 1.074999999999999956, -7.407000000000001805, -0.5374999999999999778 ) ) ;
#186 = DIRECTION ( 'NONE',  ( -0.0000000000000000000, -1.000000000000000000, -0.0000000000000000000 ) ) ;
#187 = LENGTH_MEASURE_WITH_UNIT ( LENGTH_MEASURE( 0.02539999999999999897 ), #190 );
#188 = SURFACE_SIDE_STYLE ('',( #107 ) ) ;
#189 = CARTESIAN_POINT ( 'NONE',  ( 6.582476545417024321E-17, -6.332000000000009621, 0.5374999999999999778 ) ) ;
#190 =( LENGTH_UNIT ( ) NAMED_UNIT ( * ) SI_UNIT ( $, .METRE. ) );
#191 = ORIENTED_EDGE ( 'NONE', *, *, #112, .F. ) ;
#192 = EDGE_LOOP ( 'NONE', ( #200, #191 ) ) ;
#193 =( BOUNDED_CURVE ( )  B_SPLINE_CURVE ( 3, ( #45, #47, #48, #26 ),
 .UNSPECIFIED., .F., .T. ) 
 B_SPLINE_CURVE_WITH_KNOTS ( ( 4, 4 ),
 ( 3.141592653589793116, 6.283185307179586232 ),
 .UNSPECIFIED. ) 
 CURVE ( )  GEOMETRIC_REPRESENTATION_ITEM ( )  RATIONAL_B_SPLINE_CURVE ( ( 1.000000000000000000, 0.3333333333333333703, 0.3333333333333333703, 1.000000000000000000 ) ) 
 REPRESENTATION_ITEM ( '' )  );
#194 = VERTEX_POINT ( 'NONE', #124 ) ;
#195 = ADVANCED_FACE ( 'NONE', ( #115 ), #116, .T. ) ;
#196 = ORIENTED_EDGE ( 'NONE', *, *, #6, .T. ) ;
#197 = VERTEX_POINT ( 'NONE', #136 ) ;
#198 = ORIENTED_EDGE ( 'NONE', *, *, #6, .F. ) ;
#199 = EDGE_LOOP ( 'NONE', ( #60, #196, #157, #156 ) ) ;
#200 = ORIENTED_EDGE ( 'NONE', *, *, #57, .F. ) ;
#201 = ORIENTED_EDGE ( 'NONE', *, *, #219, .F. ) ;
#202 = ORIENTED_EDGE ( 'NONE', *, *, #114, .F. ) ;
#203 = ORIENTED_EDGE ( 'NONE', *, *, #83, .T. ) ;
#204 = ORIENTED_EDGE ( 'NONE', *, *, #16, .F. ) ;
#205 = SHAPE_DEFINITION_REPRESENTATION ( #30, #126 ) ;
#206 = ORIENTED_EDGE ( 'NONE', *, *, #83, .F. ) ;
#207 = ORIENTED_EDGE ( 'NONE', *, *, #219, .T. ) ;
#208 = APPLICATION_PROTOCOL_DEFINITION ( 'draft international standard', 'automotive_design', 1998, #166 ) ;
#209 = EDGE_LOOP ( 'NONE', ( #177, #175, #155, #201 ) ) ;
#210 = MECHANICAL_DESIGN_GEOMETRIC_PRESENTATION_REPRESENTATION (  '', ( #169 ), #143 ) ;
#211 = EDGE_LOOP ( 'NONE', ( #203, #158 ) ) ;
#212 = ORIENTED_EDGE ( 'NONE', *, *, #2, .T. ) ;
#213 = PRODUCT_CONTEXT ( 'NONE', #160, 'mechanical' ) ;
#214 = DIRECTION ( 'NONE',  ( 1.000000000000000000, 0.0000000000000000000, 0.0000000000000000000 ) ) ;
#215 = ORIENTED_EDGE ( 'NONE', *, *, #114, .T. ) ;
#216 = DIRECTION ( 'NONE',  ( 0.0000000000000000000, 0.0000000000000000000, 1.000000000000000000 ) ) ;
#217 = ORIENTED_EDGE ( 'NONE', *, *, #223, .F. ) ;
#218 = CARTESIAN_POINT ( 'NONE',  ( 0.0000000000000000000, 0.0000000000000000000, 0.0000000000000000000 ) ) ;
#219 = EDGE_CURVE ( 'NONE', #146, #147, #130, .T. ) ;
#220 =( NAMED_UNIT ( * ) SI_UNIT ( $, .STERADIAN. ) SOLID_ANGLE_UNIT ( ) );
#221 =( NAMED_UNIT ( * ) PLANE_ANGLE_UNIT ( ) SI_UNIT ( $, .RADIAN. ) );
#222 = EDGE_CURVE ( 'NONE', #197, #147, #193, .T. ) ;
#223 = EDGE_CURVE ( 'NONE', #145, #167, #46, .T. ) ;
ENDSEC;
END-ISO-10303-21;
