ISO-10303-21;
HEADER;
FILE_DESCRIPTION (( 'STEP AP214' ),
    '1' );
FILE_NAME ('am-4535-063 5mm Hex x 063IN Spacer.STEP',
    '2021-02-26T21:29:49',
    ( '' ),
    ( '' ),
    'SwSTEP 2.0',
    'SolidWorks 2019',
    '' );
FILE_SCHEMA (( 'AUTOMOTIVE_DESIGN' ));
ENDSEC;

DATA;
#1 =( GEOMETRIC_REPRESENTATION_CONTEXT ( 3 ) GLOBAL_UNCERTAINTY_ASSIGNED_CONTEXT ( ( #38 ) ) GLOBAL_UNIT_ASSIGNED_CONTEXT ( ( #132, #131, #129 ) ) REPRESENTATION_CONTEXT ( 'NONE', 'WORKASPACE' ) );
#2 = ORIENTED_EDGE ( 'NONE', *, *, #89, .T. ) ;
#3 = DIRECTION ( 'NONE',  ( -0.8660254037844385966, 0.5000000000000002220, 0.0000000000000000000 ) ) ;
#4 = ADVANCED_FACE ( 'NONE', ( #220 ), #219, .T. ) ;
#5 =( LENGTH_UNIT ( ) NAMED_UNIT ( * ) SI_UNIT ( $, .METRE. ) );
#6 = VECTOR ( 'NONE', #80, 39.37007874015748143 ) ;
#7 = VECTOR ( 'NONE', #92, 39.37007874015748143 ) ;
#8 = PLANE ( 'NONE',  #193 ) ;
#9 = FILL_AREA_STYLE_COLOUR ( '', #286 ) ;
#10 = UNCERTAINTY_MEASURE_WITH_UNIT (LENGTH_MEASURE( 1.000000000000000082E-05 ), #155, 'distance_accuracy_value', 'NONE');
#11 = FILL_AREA_STYLE ('',( #9 ) ) ;
#12 = SURFACE_STYLE_FILL_AREA ( #11 ) ;
#13 = SURFACE_SIDE_STYLE ('',( #12 ) ) ;
#14 = EDGE_CURVE ( 'NONE', #222, #261, #214, .T. ) ;
#15 = CARTESIAN_POINT ( 'NONE',  ( -0.1136516277932334423, 3.484107800201510529E-17, 0.0000000000000000000 ) ) ;
#16 = SURFACE_STYLE_USAGE ( .BOTH. , #13 ) ;
#17 = EDGE_CURVE ( 'NONE', #311, #62, #211, .T. ) ;
#18 = CARTESIAN_POINT ( 'NONE',  ( 0.05682581389661680443, -0.09842519685039362309, 0.06250000000000000000 ) ) ;
#19 = CARTESIAN_POINT ( 'NONE',  ( -0.1136516277932334423, 3.484107800201510529E-17, 0.06250000000000000000 ) ) ;
#20 = EDGE_CURVE ( 'NONE', #163, #163, #303, .T. ) ;
#21 = UNCERTAINTY_MEASURE_WITH_UNIT (LENGTH_MEASURE( 1.000000000000000082E-05 ), #181, 'distance_accuracy_value', 'NONE');
#22 = VECTOR ( 'NONE', #187, 39.37007874015748143 ) ;
#23 = VERTEX_POINT ( 'NONE', #198 ) ;
#24 = EDGE_CURVE ( 'NONE', #230, #311, #195, .T. ) ;
#25 = DIRECTION ( 'NONE',  ( -0.5000000000000001110, -0.8660254037844384856, 0.0000000000000000000 ) ) ;
#26 = VECTOR ( 'NONE', #172, 39.37007874015748854 ) ;
#27 = ADVANCED_FACE ( 'NONE', ( #185, #184 ), #183, .T. ) ;
#28 = APPLICATION_CONTEXT ( 'automotive_design' ) ;
#29 = DIRECTION ( 'NONE',  ( 1.000000000000000000, 3.004629197474316090E-16, 0.0000000000000000000 ) ) ;
#30 = CARTESIAN_POINT ( 'NONE',  ( -0.05682581389661671423, -0.09842519685039365085, 0.0000000000000000000 ) ) ;
#31 = VECTOR ( 'NONE', #69, 39.37007874015748143 ) ;
#32 = LINE ( 'NONE', #30, #81 ) ;
#33 = ADVANCED_FACE ( 'NONE', ( #165, #160 ), #158, .T. ) ;
#34 = DIRECTION ( 'NONE',  ( 0.5000000000000002220, -0.8660254037844384856, 0.0000000000000000000 ) ) ;
#35 = DIRECTION ( 'NONE',  ( -0.8660254037844385966, -0.5000000000000003331, 0.0000000000000000000 ) ) ;
#36 = EDGE_CURVE ( 'NONE', #157, #157, #110, .T. ) ;
#37 = CARTESIAN_POINT ( 'NONE',  ( 0.1136516277932334840, -3.511000800346711873E-17, 0.06250000000000000000 ) ) ;
#38 = UNCERTAINTY_MEASURE_WITH_UNIT (LENGTH_MEASURE( 1.000000000000000082E-05 ), #132, 'distance_accuracy_value', 'NONE');
#39 = ORIENTED_EDGE ( 'NONE', *, *, #233, .T. ) ;
#40 = AXIS2_PLACEMENT_3D ( 'NONE', #128, #123, #121 ) ;
#41 = ADVANCED_FACE ( 'NONE', ( #134 ), #130, .T. ) ;
#42 = PLANE ( 'NONE',  #254 ) ;
#43 = ADVANCED_FACE ( 'NONE', ( #119 ), #117, .T. ) ;
#44 = FACE_OUTER_BOUND ( 'NONE', #243, .T. ) ;
#45 = CARTESIAN_POINT ( 'NONE',  ( 0.05682581389661667953, 0.09842519685039373412, 0.06250000000000000000 ) ) ;
#46 = DIRECTION ( 'NONE',  ( -0.5000000000000002220, 0.8660254037844384856, 0.0000000000000000000 ) ) ;
#47 = CARTESIAN_POINT ( 'NONE',  ( 0.1136516277932334840, -3.511000800346711873E-17, 0.0000000000000000000 ) ) ;
#48 = LINE ( 'NONE', #47, #217 ) ;
#49 = PRESENTATION_STYLE_ASSIGNMENT (( #16 ) ) ;
#50 = CARTESIAN_POINT ( 'NONE',  ( 0.05682581389661680443, -0.09842519685039362309, 0.06250000000000000000 ) ) ;
#51 = PLANE ( 'NONE',  #278 ) ;
#52 = PRODUCT_RELATED_PRODUCT_CATEGORY ( 'part', '', ( #299 ) ) ;
#53 = FACE_BOUND ( 'NONE', #265, .T. ) ;
#54 = FACE_OUTER_BOUND ( 'NONE', #272, .T. ) ;
#55 = AXIS2_PLACEMENT_3D ( 'NONE', #116, #114, #113 ) ;
#56 = DIRECTION ( 'NONE',  ( -0.0000000000000000000, -0.0000000000000000000, -1.000000000000000000 ) ) ;
#57 = ADVANCED_FACE ( 'NONE', ( #112 ), #111, .T. ) ;
#58 = CARTESIAN_POINT ( 'NONE',  ( -0.1136516277932334423, 3.484107800201510529E-17, 0.06250000000000000000 ) ) ;
#59 = LINE ( 'NONE', #58, #179 ) ;
#60 = EDGE_CURVE ( 'NONE', #239, #248, #103, .T. ) ;
#61 = DIRECTION ( 'NONE',  ( 0.5000000000000001110, -0.8660254037844384856, 0.0000000000000000000 ) ) ;
#62 = VERTEX_POINT ( 'NONE', #98 ) ;
#63 = CARTESIAN_POINT ( 'NONE',  ( -0.1136516277932334423, 3.484107800201510529E-17, 0.0000000000000000000 ) ) ;
#64 =( GEOMETRIC_REPRESENTATION_CONTEXT ( 3 ) GLOBAL_UNCERTAINTY_ASSIGNED_CONTEXT ( ( #21 ) ) GLOBAL_UNIT_ASSIGNED_CONTEXT ( ( #181, #145, #122 ) ) REPRESENTATION_CONTEXT ( 'NONE', 'WORKASPACE' ) );
#65 = VECTOR ( 'NONE', #204, 39.37007874015748854 ) ;
#66 = CLOSED_SHELL ( 'NONE', ( #33, #208, #27, #241, #232, #57, #41, #43, #4 ) ) ;
#67 = VECTOR ( 'NONE', #212, 39.37007874015748854 ) ;
#68 = LINE ( 'NONE', #63, #115 ) ;
#69 = DIRECTION ( 'NONE',  ( -0.0000000000000000000, -0.0000000000000000000, -1.000000000000000000 ) ) ;
#70 = STYLED_ITEM ( 'NONE', ( #137 ), #85 ) ;
#71 = PRESENTATION_LAYER_ASSIGNMENT (  '', '', ( #70 ) ) ;
#72 = CARTESIAN_POINT ( 'NONE',  ( -0.05682581389661672117, 0.09842519685039372024, 0.06250000000000000000 ) ) ;
#73 = AXIS2_PLACEMENT_3D ( 'NONE', #218, #216, #215 ) ;
#74 = FACE_OUTER_BOUND ( 'NONE', #295, .T. ) ;
#75 = LINE ( 'NONE', #72, #31 ) ;
#76 = DIRECTION ( 'NONE',  ( 1.000000000000000000, 3.004629197474316090E-16, 0.0000000000000000000 ) ) ;
#77 = CARTESIAN_POINT ( 'NONE',  ( -0.05682581389661671423, -0.09842519685039365085, 0.06250000000000000000 ) ) ;
#78 = MECHANICAL_DESIGN_GEOMETRIC_PRESENTATION_REPRESENTATION (  '', ( #70 ), #1 ) ;
#79 = LINE ( 'NONE', #77, #93 ) ;
#80 = DIRECTION ( 'NONE',  ( -0.0000000000000000000, -0.0000000000000000000, -1.000000000000000000 ) ) ;
#81 = VECTOR ( 'NONE', #29, 39.37007874015748143 ) ;
#82 = CARTESIAN_POINT ( 'NONE',  ( 0.05682581389661680443, -0.09842519685039362309, 0.06250000000000000000 ) ) ;
#83 = APPLICATION_CONTEXT ( 'automotive_design' ) ;
#84 = LINE ( 'NONE', #82, #6 ) ;
#85 = ADVANCED_BREP_SHAPE_REPRESENTATION ( 'am-4535-063 5mm Hex x 063IN Spacer', ( #242, #227 ), #87 ) ;
#86 = AXIS2_PLACEMENT_3D ( 'NONE', #206, #202, #200 ) ;
#87 =( GEOMETRIC_REPRESENTATION_CONTEXT ( 3 ) GLOBAL_UNCERTAINTY_ASSIGNED_CONTEXT ( ( #10 ) ) GLOBAL_UNIT_ASSIGNED_CONTEXT ( ( #155, #153, #150 ) ) REPRESENTATION_CONTEXT ( 'NONE', 'WORKASPACE' ) );
#88 = AXIS2_PLACEMENT_3D ( 'NONE', #144, #141, #135 ) ;
#89 = EDGE_CURVE ( 'NONE', #230, #250, #96, .T. ) ;
#90 = EDGE_CURVE ( 'NONE', #222, #306, #84, .T. ) ;
#91 = ORIENTED_EDGE ( 'NONE', *, *, #107, .T. ) ;
#92 = DIRECTION ( 'NONE',  ( -1.000000000000000000, -1.502314598737159524E-16, 0.0000000000000000000 ) ) ;
#93 = VECTOR ( 'NONE', #76, 39.37007874015748143 ) ;
#94 = CARTESIAN_POINT ( 'NONE',  ( 0.05682581389661667953, 0.09842519685039373412, 0.06250000000000000000 ) ) ;
#95 = DIMENSIONAL_EXPONENTS ( 1.000000000000000000, 0.0000000000000000000, 0.0000000000000000000, 0.0000000000000000000, 0.0000000000000000000, 0.0000000000000000000, 0.0000000000000000000 ) ;
#96 = LINE ( 'NONE', #94, #7 ) ;
#97 = STYLED_ITEM ( 'NONE', ( #49 ), #242 ) ;
#98 = CARTESIAN_POINT ( 'NONE',  ( -0.05682581389661672117, 0.09842519685039372024, 0.0000000000000000000 ) ) ;
#99 = VECTOR ( 'NONE', #209, 39.37007874015748143 ) ;
#100 = DIRECTION ( 'NONE',  ( 0.5000000000000001110, -0.8660254037844384856, 0.0000000000000000000 ) ) ;
#101 = CARTESIAN_POINT ( 'NONE',  ( -0.1136516277932334423, 3.484107800201510529E-17, 0.06250000000000000000 ) ) ;
#102 = EDGE_CURVE ( 'NONE', #248, #222, #79, .T. ) ;
#103 = LINE ( 'NONE', #101, #292 ) ;
#104 = DIRECTION ( 'NONE',  ( 1.000000000000000000, 1.502314598737159524E-16, 0.0000000000000000000 ) ) ;
#105 = ORIENTED_EDGE ( 'NONE', *, *, #118, .F. ) ;
#106 = DIRECTION ( 'NONE',  ( 1.502314598737159524E-16, -1.000000000000000000, 0.0000000000000000000 ) ) ;
#107 = EDGE_CURVE ( 'NONE', #250, #62, #75, .T. ) ;
#108 = AXIS2_PLACEMENT_3D ( 'NONE', #178, #173, #168 ) ;
#109 = CARTESIAN_POINT ( 'NONE',  ( 0.05682581389661667953, 0.09842519685039373412, 0.06250000000000000000 ) ) ;
#110 = CIRCLE ( 'NONE', #88, 0.3937007874015748254 ) ;
#111 = PLANE ( 'NONE',  #259 ) ;
#112 = FACE_OUTER_BOUND ( 'NONE', #247, .T. ) ;
#113 = DIRECTION ( 'NONE',  ( -0.5000000000000001110, 0.8660254037844384856, 0.0000000000000000000 ) ) ;
#114 = DIRECTION ( 'NONE',  ( 0.8660254037844385966, 0.5000000000000002220, -0.0000000000000000000 ) ) ;
#115 = VECTOR ( 'NONE', #61, 39.37007874015748854 ) ;
#116 = CARTESIAN_POINT ( 'NONE',  ( -0.1136516277932334423, 3.484107800201510529E-17, 0.06250000000000000000 ) ) ;
#117 = PLANE ( 'NONE',  #55 ) ;
#118 = EDGE_CURVE ( 'NONE', #245, #308, #68, .T. ) ;
#119 = FACE_OUTER_BOUND ( 'NONE', #257, .T. ) ;
#120 = CARTESIAN_POINT ( 'NONE',  ( 0.0000000000000000000, 0.0000000000000000000, 0.0000000000000000000 ) ) ;
#121 = DIRECTION ( 'NONE',  ( 0.5000000000000001110, 0.8660254037844384856, 0.0000000000000000000 ) ) ;
#122 =( NAMED_UNIT ( * ) SI_UNIT ( $, .STERADIAN. ) SOLID_ANGLE_UNIT ( ) );
#123 = DIRECTION ( 'NONE',  ( 0.8660254037844385966, -0.5000000000000002220, 0.0000000000000000000 ) ) ;
#124 = PRODUCT_DEFINITION_CONTEXT ( 'detailed design', #28, 'design' ) ;
#125 = PRODUCT_CONTEXT ( 'NONE', #83, 'mechanical' ) ;
#126 = DIRECTION ( 'NONE',  ( 1.000000000000000000, 0.0000000000000000000, 0.0000000000000000000 ) ) ;
#127 = DIRECTION ( 'NONE',  ( 0.0000000000000000000, 0.0000000000000000000, 1.000000000000000000 ) ) ;
#128 = CARTESIAN_POINT ( 'NONE',  ( -0.05682581389661672117, 0.09842519685039372024, 0.06250000000000000000 ) ) ;
#129 =( NAMED_UNIT ( * ) SI_UNIT ( $, .STERADIAN. ) SOLID_ANGLE_UNIT ( ) );
#130 = PLANE ( 'NONE',  #40 ) ;
#131 =( NAMED_UNIT ( * ) PLANE_ANGLE_UNIT ( ) SI_UNIT ( $, .RADIAN. ) );
#132 =( CONVERSION_BASED_UNIT ( 'INCH', #133 ) LENGTH_UNIT ( ) NAMED_UNIT ( #252 ) );
#133 = LENGTH_MEASURE_WITH_UNIT ( LENGTH_MEASURE( 0.02539999999999999897 ), #138 );
#134 = FACE_OUTER_BOUND ( 'NONE', #238, .T. ) ;
#135 = DIRECTION ( 'NONE',  ( 1.000000000000000000, 0.0000000000000000000, 0.0000000000000000000 ) ) ;
#136 = SURFACE_STYLE_USAGE ( .BOTH. , #139 ) ;
#137 = PRESENTATION_STYLE_ASSIGNMENT (( #136 ) ) ;
#138 =( LENGTH_UNIT ( ) NAMED_UNIT ( * ) SI_UNIT ( $, .METRE. ) );
#139 = SURFACE_SIDE_STYLE ('',( #140 ) ) ;
#140 = SURFACE_STYLE_FILL_AREA ( #142 ) ;
#141 = DIRECTION ( 'NONE',  ( 0.0000000000000000000, 0.0000000000000000000, 1.000000000000000000 ) ) ;
#142 = FILL_AREA_STYLE ('',( #143 ) ) ;
#143 = FILL_AREA_STYLE_COLOUR ( '', #283 ) ;
#144 = CARTESIAN_POINT ( 'NONE',  ( 0.0000000000000000000, 0.0000000000000000000, 0.0000000000000000000 ) ) ;
#145 =( NAMED_UNIT ( * ) PLANE_ANGLE_UNIT ( ) SI_UNIT ( $, .RADIAN. ) );
#146 = DIRECTION ( 'NONE',  ( 1.000000000000000000, 0.0000000000000000000, -0.0000000000000000000 ) ) ;
#147 = DIRECTION ( 'NONE',  ( 0.0000000000000000000, 0.0000000000000000000, 1.000000000000000000 ) ) ;
#148 = SHAPE_DEFINITION_REPRESENTATION ( #293, #85 ) ;
#149 = APPLICATION_PROTOCOL_DEFINITION ( 'draft international standard', 'automotive_design', 1998, #28 ) ;
#150 =( NAMED_UNIT ( * ) SI_UNIT ( $, .STERADIAN. ) SOLID_ANGLE_UNIT ( ) );
#151 = APPLICATION_PROTOCOL_DEFINITION ( 'draft international standard', 'automotive_design', 1998, #83 ) ;
#152 = CARTESIAN_POINT ( 'NONE',  ( 0.0000000000000000000, 0.0000000000000000000, 0.06250000000000000000 ) ) ;
#153 =( NAMED_UNIT ( * ) PLANE_ANGLE_UNIT ( ) SI_UNIT ( $, .RADIAN. ) );
#154 = VECTOR ( 'NONE', #176, 39.37007874015748854 ) ;
#155 =( CONVERSION_BASED_UNIT ( 'INCH', #156 ) LENGTH_UNIT ( ) NAMED_UNIT ( #95 ) );
#156 = LENGTH_MEASURE_WITH_UNIT ( LENGTH_MEASURE( 0.02539999999999999897 ), #161 );
#157 = VERTEX_POINT ( 'NONE', #159 ) ;
#158 = PLANE ( 'NONE',  #298 ) ;
#159 = CARTESIAN_POINT ( 'NONE',  ( 0.3937007874015748254, 0.0000000000000000000, 0.0000000000000000000 ) ) ;
#160 = FACE_BOUND ( 'NONE', #249, .T. ) ;
#161 =( LENGTH_UNIT ( ) NAMED_UNIT ( * ) SI_UNIT ( $, .METRE. ) );
#162 = CARTESIAN_POINT ( 'NONE',  ( 0.3937007874015748254, 0.0000000000000000000, 0.06250000000000000000 ) ) ;
#163 = VERTEX_POINT ( 'NONE', #162 ) ;
#164 = CARTESIAN_POINT ( 'NONE',  ( 0.05682581389661667953, 0.09842519685039373412, 0.0000000000000000000 ) ) ;
#165 = FACE_OUTER_BOUND ( 'NONE', #282, .T. ) ;
#166 = DIRECTION ( 'NONE',  ( -0.0000000000000000000, -0.0000000000000000000, -1.000000000000000000 ) ) ;
#167 = CARTESIAN_POINT ( 'NONE',  ( -0.05682581389661671423, -0.09842519685039365085, 0.06250000000000000000 ) ) ;
#168 = DIRECTION ( 'NONE',  ( -1.000000000000000000, 0.0000000000000000000, 0.0000000000000000000 ) ) ;
#169 = LINE ( 'NONE', #167, #255 ) ;
#170 = CARTESIAN_POINT ( 'NONE',  ( -0.05682581389661671423, -0.09842519685039365085, 0.0000000000000000000 ) ) ;
#171 = CARTESIAN_POINT ( 'NONE',  ( 0.05682581389661680443, -0.09842519685039362309, 0.0000000000000000000 ) ) ;
#172 = DIRECTION ( 'NONE',  ( -0.5000000000000001110, -0.8660254037844384856, 0.0000000000000000000 ) ) ;
#173 = DIRECTION ( 'NONE',  ( -0.0000000000000000000, -0.0000000000000000000, -1.000000000000000000 ) ) ;
#174 = CARTESIAN_POINT ( 'NONE',  ( -0.05682581389661672117, 0.09842519685039372024, 0.0000000000000000000 ) ) ;
#175 = LINE ( 'NONE', #174, #26 ) ;
#176 = DIRECTION ( 'NONE',  ( 0.5000000000000001110, 0.8660254037844384856, 0.0000000000000000000 ) ) ;
#177 = CARTESIAN_POINT ( 'NONE',  ( 0.05682581389661680443, -0.09842519685039362309, 0.0000000000000000000 ) ) ;
#178 = CARTESIAN_POINT ( 'NONE',  ( 0.0000000000000000000, 0.0000000000000000000, 0.06250000000000000000 ) ) ;
#179 = VECTOR ( 'NONE', #56, 39.37007874015748143 ) ;
#180 = VECTOR ( 'NONE', #186, 39.37007874015748143 ) ;
#181 =( CONVERSION_BASED_UNIT ( 'INCH', #284 ) LENGTH_UNIT ( ) NAMED_UNIT ( #277 ) );
#182 = LINE ( 'NONE', #177, #154 ) ;
#183 = CYLINDRICAL_SURFACE ( 'NONE', #108, 0.3937007874015748254 ) ;
#184 = FACE_OUTER_BOUND ( 'NONE', #240, .T. ) ;
#185 = FACE_OUTER_BOUND ( 'NONE', #229, .T. ) ;
#186 = DIRECTION ( 'NONE',  ( -0.0000000000000000000, -0.0000000000000000000, -1.000000000000000000 ) ) ;
#187 = DIRECTION ( 'NONE',  ( -0.0000000000000000000, -0.0000000000000000000, -1.000000000000000000 ) ) ;
#188 = EDGE_CURVE ( 'NONE', #239, #245, #59, .T. ) ;
#189 = CARTESIAN_POINT ( 'NONE',  ( 0.05682581389661667953, 0.09842519685039373412, 0.06250000000000000000 ) ) ;
#190 = CARTESIAN_POINT ( 'NONE',  ( 0.1136516277932334840, -3.511000800346711873E-17, 0.06250000000000000000 ) ) ;
#191 = PRESENTATION_LAYER_ASSIGNMENT (  '', '', ( #97 ) ) ;
#192 = LINE ( 'NONE', #190, #180 ) ;
#193 = AXIS2_PLACEMENT_3D ( 'NONE', #18, #3, #25 ) ;
#194 = CARTESIAN_POINT ( 'NONE',  ( 0.1136516277932334840, -3.511000800346711873E-17, 0.06250000000000000000 ) ) ;
#195 = LINE ( 'NONE', #189, #22 ) ;
#196 = DIRECTION ( 'NONE',  ( -0.5000000000000001110, -0.8660254037844384856, 0.0000000000000000000 ) ) ;
#197 = CARTESIAN_POINT ( 'NONE',  ( -0.05682581389661672117, 0.09842519685039372024, 0.06250000000000000000 ) ) ;
#198 = CARTESIAN_POINT ( 'NONE',  ( 0.1136516277932334840, -3.511000800346711873E-17, 0.0000000000000000000 ) ) ;
#199 = LINE ( 'NONE', #197, #226 ) ;
#200 = DIRECTION ( 'NONE',  ( 1.000000000000000000, 0.0000000000000000000, 0.0000000000000000000 ) ) ;
#201 = CARTESIAN_POINT ( 'NONE',  ( -0.05682581389661672117, 0.09842519685039372024, 0.06250000000000000000 ) ) ;
#202 = DIRECTION ( 'NONE',  ( 0.0000000000000000000, 0.0000000000000000000, 1.000000000000000000 ) ) ;
#203 = CARTESIAN_POINT ( 'NONE',  ( -0.05682581389661671423, -0.09842519685039365085, 0.06250000000000000000 ) ) ;
#204 = DIRECTION ( 'NONE',  ( -0.5000000000000002220, 0.8660254037844384856, 0.0000000000000000000 ) ) ;
#205 = CARTESIAN_POINT ( 'NONE',  ( 0.1136516277932334840, -3.511000800346711873E-17, 0.06250000000000000000 ) ) ;
#206 = CARTESIAN_POINT ( 'NONE',  ( 0.0000000000000000000, 0.0000000000000000000, 0.06250000000000000000 ) ) ;
#207 = LINE ( 'NONE', #205, #65 ) ;
#208 = ADVANCED_FACE ( 'NONE', ( #54, #53 ), #51, .F. ) ;
#209 = DIRECTION ( 'NONE',  ( -1.000000000000000000, -1.502314598737159524E-16, 0.0000000000000000000 ) ) ;
#210 = CARTESIAN_POINT ( 'NONE',  ( 0.05682581389661667953, 0.09842519685039373412, 0.0000000000000000000 ) ) ;
#211 = LINE ( 'NONE', #210, #99 ) ;
#212 = DIRECTION ( 'NONE',  ( 0.5000000000000001110, 0.8660254037844384856, 0.0000000000000000000 ) ) ;
#213 = CARTESIAN_POINT ( 'NONE',  ( 0.05682581389661680443, -0.09842519685039362309, 0.06250000000000000000 ) ) ;
#214 = LINE ( 'NONE', #213, #67 ) ;
#215 = DIRECTION ( 'NONE',  ( -1.000000000000000000, -3.004629197474316090E-16, 0.0000000000000000000 ) ) ;
#216 = DIRECTION ( 'NONE',  ( -3.004629197474316090E-16, 1.000000000000000000, 0.0000000000000000000 ) ) ;
#217 = VECTOR ( 'NONE', #46, 39.37007874015748854 ) ;
#218 = CARTESIAN_POINT ( 'NONE',  ( -0.05682581389661671423, -0.09842519685039365085, 0.06250000000000000000 ) ) ;
#219 = PLANE ( 'NONE',  #73 ) ;
#220 = FACE_OUTER_BOUND ( 'NONE', #246, .T. ) ;
#221 = ORIENTED_EDGE ( 'NONE', *, *, #279, .F. ) ;
#222 = VERTEX_POINT ( 'NONE', #50 ) ;
#223 = EDGE_CURVE ( 'NONE', #23, #311, #48, .T. ) ;
#224 = ORIENTED_EDGE ( 'NONE', *, *, #310, .F. ) ;
#225 = ORIENTED_EDGE ( 'NONE', *, *, #60, .T. ) ;
#226 = VECTOR ( 'NONE', #196, 39.37007874015748854 ) ;
#227 = AXIS2_PLACEMENT_3D ( 'NONE', #120, #127, #126 ) ;
#228 = ORIENTED_EDGE ( 'NONE', *, *, #102, .F. ) ;
#229 = EDGE_LOOP ( 'NONE', ( #302 ) ) ;
#230 = VERTEX_POINT ( 'NONE', #45 ) ;
#231 = PRODUCT_DEFINITION ( 'UNKNOWN', '', #235, #124 ) ;
#232 = ADVANCED_FACE ( 'NONE', ( #44 ), #42, .T. ) ;
#233 = EDGE_CURVE ( 'NONE', #308, #306, #32, .T. ) ;
#234 = ORIENTED_EDGE ( 'NONE', *, *, #188, .T. ) ;
#235 = PRODUCT_DEFINITION_FORMATION_WITH_SPECIFIED_SOURCE ( 'ANY', '', #299, .NOT_KNOWN. ) ;
#236 = ORIENTED_EDGE ( 'NONE', *, *, #14, .F. ) ;
#237 = ORIENTED_EDGE ( 'NONE', *, *, #268, .T. ) ;
#238 = EDGE_LOOP ( 'NONE', ( #221, #309, #304, #234 ) ) ;
#239 = VERTEX_POINT ( 'NONE', #19 ) ;
#240 = EDGE_LOOP ( 'NONE', ( #307 ) ) ;
#241 = ADVANCED_FACE ( 'NONE', ( #74 ), #8, .T. ) ;
#242 = MANIFOLD_SOLID_BREP ( 'Boss-Extrude1', #66 ) ;
#243 = EDGE_LOOP ( 'NONE', ( #266, #264, #263, #262 ) ) ;
#244 = EDGE_CURVE ( 'NONE', #261, #230, #207, .T. ) ;
#245 = VERTEX_POINT ( 'NONE', #15 ) ;
#246 = EDGE_LOOP ( 'NONE', ( #256, #224, #258, #260 ) ) ;
#247 = EDGE_LOOP ( 'NONE', ( #274, #275, #2, #91 ) ) ;
#248 = VERTEX_POINT ( 'NONE', #203 ) ;
#249 = EDGE_LOOP ( 'NONE', ( #288, #236, #228, #294, #301, #300 ) ) ;
#250 = VERTEX_POINT ( 'NONE', #201 ) ;
#251 = EDGE_CURVE ( 'NONE', #250, #239, #199, .T. ) ;
#252 = DIMENSIONAL_EXPONENTS ( 1.000000000000000000, 0.0000000000000000000, 0.0000000000000000000, 0.0000000000000000000, 0.0000000000000000000, 0.0000000000000000000, 0.0000000000000000000 ) ;
#253 = ORIENTED_EDGE ( 'NONE', *, *, #310, .T. ) ;
#254 = AXIS2_PLACEMENT_3D ( 'NONE', #37, #35, #34 ) ;
#255 = VECTOR ( 'NONE', #166, 39.37007874015748143 ) ;
#256 = ORIENTED_EDGE ( 'NONE', *, *, #233, .F. ) ;
#257 = EDGE_LOOP ( 'NONE', ( #105, #271, #225, #253 ) ) ;
#258 = ORIENTED_EDGE ( 'NONE', *, *, #102, .T. ) ;
#259 = AXIS2_PLACEMENT_3D ( 'NONE', #109, #106, #104 ) ;
#260 = ORIENTED_EDGE ( 'NONE', *, *, #90, .T. ) ;
#261 = VERTEX_POINT ( 'NONE', #194 ) ;
#262 = ORIENTED_EDGE ( 'NONE', *, *, #24, .T. ) ;
#263 = ORIENTED_EDGE ( 'NONE', *, *, #244, .T. ) ;
#264 = ORIENTED_EDGE ( 'NONE', *, *, #268, .F. ) ;
#265 = EDGE_LOOP ( 'NONE', ( #290, #287, #285, #291, #280, #39 ) ) ;
#266 = ORIENTED_EDGE ( 'NONE', *, *, #223, .F. ) ;
#267 = ORIENTED_EDGE ( 'NONE', *, *, #90, .F. ) ;
#268 = EDGE_CURVE ( 'NONE', #261, #23, #192, .T. ) ;
#269 = ORIENTED_EDGE ( 'NONE', *, *, #14, .T. ) ;
#270 = EDGE_CURVE ( 'NONE', #306, #23, #182, .T. ) ;
#271 = ORIENTED_EDGE ( 'NONE', *, *, #188, .F. ) ;
#272 = EDGE_LOOP ( 'NONE', ( #273 ) ) ;
#273 = ORIENTED_EDGE ( 'NONE', *, *, #36, .F. ) ;
#274 = ORIENTED_EDGE ( 'NONE', *, *, #17, .F. ) ;
#275 = ORIENTED_EDGE ( 'NONE', *, *, #24, .F. ) ;
#276 = ORIENTED_EDGE ( 'NONE', *, *, #270, .F. ) ;
#277 = DIMENSIONAL_EXPONENTS ( 1.000000000000000000, 0.0000000000000000000, 0.0000000000000000000, 0.0000000000000000000, 0.0000000000000000000, 0.0000000000000000000, 0.0000000000000000000 ) ;
#278 = AXIS2_PLACEMENT_3D ( 'NONE', #297, #305, #296 ) ;
#279 = EDGE_CURVE ( 'NONE', #62, #245, #175, .T. ) ;
#280 = ORIENTED_EDGE ( 'NONE', *, *, #118, .T. ) ;
#281 = MECHANICAL_DESIGN_GEOMETRIC_PRESENTATION_REPRESENTATION (  '', ( #97 ), #64 ) ;
#282 = EDGE_LOOP ( 'NONE', ( #289 ) ) ;
#283 = COLOUR_RGB ( '',0.2509803921568627416, 0.2509803921568627416, 0.2509803921568627416 ) ;
#284 = LENGTH_MEASURE_WITH_UNIT ( LENGTH_MEASURE( 0.02539999999999999897 ), #5 );
#285 = ORIENTED_EDGE ( 'NONE', *, *, #17, .T. ) ;
#286 = COLOUR_RGB ( '',0.2509803921568627416, 0.2509803921568627416, 0.2509803921568627416 ) ;
#287 = ORIENTED_EDGE ( 'NONE', *, *, #223, .T. ) ;
#288 = ORIENTED_EDGE ( 'NONE', *, *, #244, .F. ) ;
#289 = ORIENTED_EDGE ( 'NONE', *, *, #20, .T. ) ;
#290 = ORIENTED_EDGE ( 'NONE', *, *, #270, .T. ) ;
#291 = ORIENTED_EDGE ( 'NONE', *, *, #279, .T. ) ;
#292 = VECTOR ( 'NONE', #100, 39.37007874015748854 ) ;
#293 = PRODUCT_DEFINITION_SHAPE ( 'NONE', 'NONE',  #231 ) ;
#294 = ORIENTED_EDGE ( 'NONE', *, *, #60, .F. ) ;
#295 = EDGE_LOOP ( 'NONE', ( #276, #267, #269, #237 ) ) ;
#296 = DIRECTION ( 'NONE',  ( 1.000000000000000000, 0.0000000000000000000, -0.0000000000000000000 ) ) ;
#297 = CARTESIAN_POINT ( 'NONE',  ( 0.0000000000000000000, 0.0000000000000000000, 0.0000000000000000000 ) ) ;
#298 = AXIS2_PLACEMENT_3D ( 'NONE', #152, #147, #146 ) ;
#299 = PRODUCT ( 'am-4535-063 5mm Hex x 063IN Spacer', 'am-4535-063 5mm Hex x 063IN Spacer', '', ( #125 ) ) ;
#300 = ORIENTED_EDGE ( 'NONE', *, *, #89, .F. ) ;
#301 = ORIENTED_EDGE ( 'NONE', *, *, #251, .F. ) ;
#302 = ORIENTED_EDGE ( 'NONE', *, *, #20, .F. ) ;
#303 = CIRCLE ( 'NONE', #86, 0.3937007874015748254 ) ;
#304 = ORIENTED_EDGE ( 'NONE', *, *, #251, .T. ) ;
#305 = DIRECTION ( 'NONE',  ( 0.0000000000000000000, 0.0000000000000000000, 1.000000000000000000 ) ) ;
#306 = VERTEX_POINT ( 'NONE', #171 ) ;
#307 = ORIENTED_EDGE ( 'NONE', *, *, #36, .T. ) ;
#308 = VERTEX_POINT ( 'NONE', #170 ) ;
#309 = ORIENTED_EDGE ( 'NONE', *, *, #107, .F. ) ;
#310 = EDGE_CURVE ( 'NONE', #248, #308, #169, .T. ) ;
#311 = VERTEX_POINT ( 'NONE', #164 ) ;
ENDSEC;
END-ISO-10303-21;
