ISO-10303-21;
HEADER;
FILE_DESCRIPTION (( 'STEP AP214' ),
    '1' );
FILE_NAME ('am-4535-188 5mm Hex x 188IN Spacer.STEP',
    '2021-02-26T21:29:00',
    ( '' ),
    ( '' ),
    'SwSTEP 2.0',
    'SolidWorks 2019',
    '' );
FILE_SCHEMA (( 'AUTOMOTIVE_DESIGN' ));
ENDSEC;

DATA;
#1 = DIRECTION ( 'NONE',  ( -1.000000000000000000, 0.0000000000000000000, 0.0000000000000000000 ) ) ;
#2 = APPLICATION_CONTEXT ( 'automotive_design' ) ;
#3 = EDGE_CURVE ( 'NONE', #239, #238, #247, .T. ) ;
#4 = LINE ( 'NONE', #62, #280 ) ;
#5 = CARTESIAN_POINT ( 'NONE',  ( -0.05682581389661672117, 0.09842519685039372024, 0.1875000000000000278 ) ) ;
#6 = EDGE_CURVE ( 'NONE', #242, #246, #252, .T. ) ;
#7 = DIRECTION ( 'NONE',  ( 1.000000000000000000, 0.0000000000000000000, 0.0000000000000000000 ) ) ;
#8 = ADVANCED_FACE ( 'NONE', ( #255, #256 ), #257, .F. ) ;
#9 = CARTESIAN_POINT ( 'NONE',  ( 0.05682581389661680443, -0.09842519685039362309, 0.1875000000000000278 ) ) ;
#10 = CARTESIAN_POINT ( 'NONE',  ( -0.05682581389661672117, 0.09842519685039372024, 0.0000000000000000000 ) ) ;
#11 = CARTESIAN_POINT ( 'NONE',  ( -0.1136516277932334423, 3.484107800201510529E-17, 0.1875000000000000278 ) ) ;
#12 = CARTESIAN_POINT ( 'NONE',  ( 0.05682581389661680443, -0.09842519685039362309, 0.1875000000000000278 ) ) ;
#13 = CARTESIAN_POINT ( 'NONE',  ( 0.05682581389661667953, 0.09842519685039373412, 0.1875000000000000278 ) ) ;
#14 = PRODUCT_DEFINITION_CONTEXT ( 'detailed design', #53, 'design' ) ;
#15 = DIRECTION ( 'NONE',  ( 0.8660254037844384856, 0.5000000000000003331, -0.0000000000000000000 ) ) ;
#16 = DIRECTION ( 'NONE',  ( -0.0000000000000000000, -0.0000000000000000000, -1.000000000000000000 ) ) ;
#17 = VECTOR ( 'NONE', #254, 39.37007874015748854 ) ;
#18 = CARTESIAN_POINT ( 'NONE',  ( -0.05682581389661672117, 0.09842519685039372024, 0.1875000000000000278 ) ) ;
#19 = DIRECTION ( 'NONE',  ( 0.8660254037844384856, -0.5000000000000003331, 0.0000000000000000000 ) ) ;
#20 = PLANE ( 'NONE',  #76 ) ;
#21 = EDGE_CURVE ( 'NONE', #230, #112, #261, .T. ) ;
#22 = VECTOR ( 'NONE', #263, 39.37007874015748854 ) ;
#23 = AXIS2_PLACEMENT_3D ( 'NONE', #258, #259, #260 ) ;
#24 = EDGE_CURVE ( 'NONE', #236, #112, #264, .T. ) ;
#25 = FILL_AREA_STYLE_COLOUR ( '', #281 ) ;
#26 = AXIS2_PLACEMENT_3D ( 'NONE', #128, #167, #166 ) ;
#27 = CARTESIAN_POINT ( 'NONE',  ( 0.1136516277932334840, -3.511000800346711873E-17, 0.0000000000000000000 ) ) ;
#28 = EDGE_CURVE ( 'NONE', #208, #239, #271, .T. ) ;
#29 = VECTOR ( 'NONE', #16, 39.37007874015748143 ) ;
#30 = AXIS2_PLACEMENT_3D ( 'NONE', #289, #15, #307 ) ;
#31 = UNCERTAINTY_MEASURE_WITH_UNIT (LENGTH_MEASURE( 1.000000000000000082E-05 ), #171, 'distance_accuracy_value', 'NONE');
#32 = MANIFOLD_SOLID_BREP ( 'Boss-Extrude1', #170 ) ;
#33 = CYLINDRICAL_SURFACE ( 'NONE', #97, 0.3937007874015748254 ) ;
#34 = DIRECTION ( 'NONE',  ( 0.5000000000000002220, 0.8660254037844383745, 0.0000000000000000000 ) ) ;
#35 = COLOUR_RGB ( '',0.2509803921568627416, 0.2509803921568627416, 0.2509803921568627416 ) ;
#36 = STYLED_ITEM ( 'NONE', ( #146 ), #54 ) ;
#37 = CARTESIAN_POINT ( 'NONE',  ( -0.05682581389661672117, 0.09842519685039372024, 0.1875000000000000278 ) ) ;
#38 = DIRECTION ( 'NONE',  ( 0.0000000000000000000, 0.0000000000000000000, 1.000000000000000000 ) ) ;
#39 = LINE ( 'NONE', #72, #299 ) ;
#40 = DIRECTION ( 'NONE',  ( -0.8660254037844384856, 0.5000000000000003331, 0.0000000000000000000 ) ) ;
#41 =( GEOMETRIC_REPRESENTATION_CONTEXT ( 3 ) GLOBAL_UNCERTAINTY_ASSIGNED_CONTEXT ( ( #31 ) ) GLOBAL_UNIT_ASSIGNED_CONTEXT ( ( #171, #168, #159 ) ) REPRESENTATION_CONTEXT ( 'NONE', 'WORKASPACE' ) );
#42 = DIRECTION ( 'NONE',  ( -0.5000000000000002220, -0.8660254037844383745, 0.0000000000000000000 ) ) ;
#43 = CARTESIAN_POINT ( 'NONE',  ( -0.05682581389661671423, -0.09842519685039365085, 0.0000000000000000000 ) ) ;
#44 = LINE ( 'NONE', #27, #155 ) ;
#45 = VECTOR ( 'NONE', #304, 39.37007874015748854 ) ;
#46 = AXIS2_PLACEMENT_3D ( 'NONE', #183, #182, #180 ) ;
#47 = VECTOR ( 'NONE', #188, 39.37007874015748143 ) ;
#48 = CARTESIAN_POINT ( 'NONE',  ( 0.1136516277932334840, -3.511000800346711873E-17, 0.1875000000000000278 ) ) ;
#49 = DIRECTION ( 'NONE',  ( -0.5000000000000002220, 0.8660254037844384856, 0.0000000000000000000 ) ) ;
#50 = ADVANCED_FACE ( 'NONE', ( #306, #298 ), #33, .T. ) ;
#51 = CARTESIAN_POINT ( 'NONE',  ( 0.0000000000000000000, 0.0000000000000000000, 0.1875000000000000278 ) ) ;
#52 = DIMENSIONAL_EXPONENTS ( 1.000000000000000000, 0.0000000000000000000, 0.0000000000000000000, 0.0000000000000000000, 0.0000000000000000000, 0.0000000000000000000, 0.0000000000000000000 ) ;
#53 = APPLICATION_CONTEXT ( 'automotive_design' ) ;
#54 = ADVANCED_BREP_SHAPE_REPRESENTATION ( 'am-4535-188 5mm Hex x 188IN Spacer', ( #32, #26 ), #41 ) ;
#55 = PRESENTATION_LAYER_ASSIGNMENT (  '', '', ( #287 ) ) ;
#56 = CARTESIAN_POINT ( 'NONE',  ( 0.1136516277932334840, -3.511000800346711873E-17, 0.1875000000000000278 ) ) ;
#57 = AXIS2_PLACEMENT_3D ( 'NONE', #18, #19, #34 ) ;
#58 = DIRECTION ( 'NONE',  ( -0.0000000000000000000, -0.0000000000000000000, -1.000000000000000000 ) ) ;
#59 = LINE ( 'NONE', #12, #29 ) ;
#60 = EDGE_CURVE ( 'NONE', #244, #195, #303, .T. ) ;
#61 = DIMENSIONAL_EXPONENTS ( 1.000000000000000000, 0.0000000000000000000, 0.0000000000000000000, 0.0000000000000000000, 0.0000000000000000000, 0.0000000000000000000, 0.0000000000000000000 ) ;
#62 = CARTESIAN_POINT ( 'NONE',  ( -0.05682581389661671423, -0.09842519685039365085, 0.1875000000000000278 ) ) ;
#63 = VECTOR ( 'NONE', #58, 39.37007874015748143 ) ;
#64 =( GEOMETRIC_REPRESENTATION_CONTEXT ( 3 ) GLOBAL_UNCERTAINTY_ASSIGNED_CONTEXT ( ( #305 ) ) GLOBAL_UNIT_ASSIGNED_CONTEXT ( ( #285, #288, #311 ) ) REPRESENTATION_CONTEXT ( 'NONE', 'WORKASPACE' ) );
#65 = MECHANICAL_DESIGN_GEOMETRIC_PRESENTATION_REPRESENTATION (  '', ( #36 ), #113 ) ;
#66 = CIRCLE ( 'NONE', #116, 0.3937007874015748254 ) ;
#67 = VECTOR ( 'NONE', #197, 39.37007874015748143 ) ;
#68 = PRODUCT_DEFINITION ( 'UNKNOWN', '', #87, #14 ) ;
#69 = DIRECTION ( 'NONE',  ( -0.5000000000000002220, 0.8660254037844384856, 0.0000000000000000000 ) ) ;
#70 = EDGE_CURVE ( 'NONE', #246, #230, #300, .T. ) ;
#71 = CARTESIAN_POINT ( 'NONE',  ( 0.05682581389661667953, 0.09842519685039373412, 0.0000000000000000000 ) ) ;
#72 = CARTESIAN_POINT ( 'NONE',  ( -0.1136516277932334423, 3.484107800201510529E-17, 0.1875000000000000278 ) ) ;
#73 = DIRECTION ( 'NONE',  ( 0.5000000000000001110, -0.8660254037844384856, 0.0000000000000000000 ) ) ;
#74 = DIRECTION ( 'NONE',  ( -3.004629197474316090E-16, 1.000000000000000000, 0.0000000000000000000 ) ) ;
#75 = CARTESIAN_POINT ( 'NONE',  ( -0.05682581389661671423, -0.09842519685039365085, 0.1875000000000000278 ) ) ;
#76 = AXIS2_PLACEMENT_3D ( 'NONE', #9, #40, #42 ) ;
#77 = EDGE_CURVE ( 'NONE', #238, #242, #81, .T. ) ;
#78 = SURFACE_STYLE_FILL_AREA ( #274 ) ;
#79 = VECTOR ( 'NONE', #270, 39.37007874015748143 ) ;
#80 = DIMENSIONAL_EXPONENTS ( 1.000000000000000000, 0.0000000000000000000, 0.0000000000000000000, 0.0000000000000000000, 0.0000000000000000000, 0.0000000000000000000, 0.0000000000000000000 ) ;
#81 = LINE ( 'NONE', #100, #102 ) ;
#82 = EDGE_CURVE ( 'NONE', #191, #246, #4, .T. ) ;
#83 = FACE_OUTER_BOUND ( 'NONE', #114, .T. ) ;
#84 = DIRECTION ( 'NONE',  ( -1.000000000000000000, -3.004629197474316090E-16, 0.0000000000000000000 ) ) ;
#85 = AXIS2_PLACEMENT_3D ( 'NONE', #205, #204, #202 ) ;
#86 = VECTOR ( 'NONE', #218, 39.37007874015748854 ) ;
#87 = PRODUCT_DEFINITION_FORMATION_WITH_SPECIFIED_SOURCE ( 'ANY', '', #229, .NOT_KNOWN. ) ;
#88 = AXIS2_PLACEMENT_3D ( 'NONE', #161, #160, #163 ) ;
#89 = PRESENTATION_LAYER_ASSIGNMENT (  '', '', ( #36 ) ) ;
#90 = AXIS2_PLACEMENT_3D ( 'NONE', #215, #213, #212 ) ;
#91 = LINE ( 'NONE', #48, #295 ) ;
#92 = ADVANCED_FACE ( 'NONE', ( #93 ), #105, .T. ) ;
#93 = FACE_OUTER_BOUND ( 'NONE', #243, .T. ) ;
#94 = PLANE ( 'NONE',  #151 ) ;
#95 = FACE_OUTER_BOUND ( 'NONE', #227, .T. ) ;
#96 = CARTESIAN_POINT ( 'NONE',  ( 0.05682581389661680443, -0.09842519685039362309, 0.1875000000000000278 ) ) ;
#97 = AXIS2_PLACEMENT_3D ( 'NONE', #310, #301, #1 ) ;
#98 = CARTESIAN_POINT ( 'NONE',  ( 0.05682581389661680443, -0.09842519685039362309, 0.0000000000000000000 ) ) ;
#99 = EDGE_CURVE ( 'NONE', #195, #191, #39, .T. ) ;
#100 = CARTESIAN_POINT ( 'NONE',  ( -0.05682581389661672117, 0.09842519685039372024, 0.0000000000000000000 ) ) ;
#101 = DIRECTION ( 'NONE',  ( 1.000000000000000000, 3.004629197474316090E-16, 0.0000000000000000000 ) ) ;
#102 = VECTOR ( 'NONE', #277, 39.37007874015748854 ) ;
#103 = CIRCLE ( 'NONE', #46, 0.3937007874015748254 ) ;
#104 = ADVANCED_FACE ( 'NONE', ( #83 ), #20, .T. ) ;
#105 = PLANE ( 'NONE',  #30 ) ;
#106 = EDGE_CURVE ( 'NONE', #236, #208, #91, .T. ) ;
#107 = ORIENTED_EDGE ( 'NONE', *, *, #148, .T. ) ;
#108 = ORIENTED_EDGE ( 'NONE', *, *, #21, .F. ) ;
#109 = ORIENTED_EDGE ( 'NONE', *, *, #106, .F. ) ;
#110 = ORIENTED_EDGE ( 'NONE', *, *, #250, .T. ) ;
#111 = ORIENTED_EDGE ( 'NONE', *, *, #297, .F. ) ;
#112 = VERTEX_POINT ( 'NONE', #115 ) ;
#113 =( GEOMETRIC_REPRESENTATION_CONTEXT ( 3 ) GLOBAL_UNCERTAINTY_ASSIGNED_CONTEXT ( ( #308 ) ) GLOBAL_UNIT_ASSIGNED_CONTEXT ( ( #142, #138, #130 ) ) REPRESENTATION_CONTEXT ( 'NONE', 'WORKASPACE' ) );
#114 = EDGE_LOOP ( 'NONE', ( #108, #245, #110, #165 ) ) ;
#115 = CARTESIAN_POINT ( 'NONE',  ( 0.1136516277932334840, -3.511000800346711873E-17, 0.0000000000000000000 ) ) ;
#116 = AXIS2_PLACEMENT_3D ( 'NONE', #51, #38, #7 ) ;
#117 = ORIENTED_EDGE ( 'NONE', *, *, #250, .F. ) ;
#118 = DIRECTION ( 'NONE',  ( -0.0000000000000000000, -0.0000000000000000000, -1.000000000000000000 ) ) ;
#119 = ORIENTED_EDGE ( 'NONE', *, *, #60, .F. ) ;
#120 = ORIENTED_EDGE ( 'NONE', *, *, #293, .F. ) ;
#121 = EDGE_LOOP ( 'NONE', ( #122 ) ) ;
#122 = ORIENTED_EDGE ( 'NONE', *, *, #309, .F. ) ;
#123 = VERTEX_POINT ( 'NONE', #96 ) ;
#124 = EDGE_LOOP ( 'NONE', ( #156 ) ) ;
#125 = SHAPE_DEFINITION_REPRESENTATION ( #279, #54 ) ;
#126 = APPLICATION_PROTOCOL_DEFINITION ( 'draft international standard', 'automotive_design', 1998, #53 ) ;
#127 = ORIENTED_EDGE ( 'NONE', *, *, #21, .T. ) ;
#128 = CARTESIAN_POINT ( 'NONE',  ( 0.0000000000000000000, 0.0000000000000000000, 0.0000000000000000000 ) ) ;
#129 = ORIENTED_EDGE ( 'NONE', *, *, #99, .F. ) ;
#130 =( NAMED_UNIT ( * ) SI_UNIT ( $, .STERADIAN. ) SOLID_ANGLE_UNIT ( ) );
#131 = ORIENTED_EDGE ( 'NONE', *, *, #194, .T. ) ;
#132 = CARTESIAN_POINT ( 'NONE',  ( -0.1136516277932334423, 3.484107800201510529E-17, 0.0000000000000000000 ) ) ;
#133 = ORIENTED_EDGE ( 'NONE', *, *, #3, .T. ) ;
#134 = LINE ( 'NONE', #139, #86 ) ;
#135 = ADVANCED_FACE ( 'NONE', ( #95 ), #94, .T. ) ;
#136 = CARTESIAN_POINT ( 'NONE',  ( -0.05682581389661672117, 0.09842519685039372024, 0.1875000000000000278 ) ) ;
#137 = CARTESIAN_POINT ( 'NONE',  ( -0.05682581389661671423, -0.09842519685039365085, 0.0000000000000000000 ) ) ;
#138 =( NAMED_UNIT ( * ) PLANE_ANGLE_UNIT ( ) SI_UNIT ( $, .RADIAN. ) );
#139 = CARTESIAN_POINT ( 'NONE',  ( 0.05682581389661680443, -0.09842519685039362309, 0.1875000000000000278 ) ) ;
#140 = LENGTH_MEASURE_WITH_UNIT ( LENGTH_MEASURE( 0.02539999999999999897 ), #144 );
#141 = EDGE_LOOP ( 'NONE', ( #173, #174, #178, #181 ) ) ;
#142 =( CONVERSION_BASED_UNIT ( 'INCH', #140 ) LENGTH_UNIT ( ) NAMED_UNIT ( #52 ) );
#143 = ORIENTED_EDGE ( 'NONE', *, *, #77, .T. ) ;
#144 =( LENGTH_UNIT ( ) NAMED_UNIT ( * ) SI_UNIT ( $, .METRE. ) );
#145 = SURFACE_STYLE_USAGE ( .BOTH. , #149 ) ;
#146 = PRESENTATION_STYLE_ASSIGNMENT (( #145 ) ) ;
#147 = ORIENTED_EDGE ( 'NONE', *, *, #6, .T. ) ;
#148 = EDGE_CURVE ( 'NONE', #179, #179, #66, .T. ) ;
#149 = SURFACE_SIDE_STYLE ('',( #150 ) ) ;
#150 = SURFACE_STYLE_FILL_AREA ( #152 ) ;
#151 = AXIS2_PLACEMENT_3D ( 'NONE', #290, #74, #84 ) ;
#152 = FILL_AREA_STYLE ('',( #153 ) ) ;
#153 = FILL_AREA_STYLE_COLOUR ( '', #35 ) ;
#154 = ORIENTED_EDGE ( 'NONE', *, *, #70, .T. ) ;
#155 = VECTOR ( 'NONE', #69, 39.37007874015748854 ) ;
#156 = ORIENTED_EDGE ( 'NONE', *, *, #148, .F. ) ;
#157 = APPLICATION_PROTOCOL_DEFINITION ( 'draft international standard', 'automotive_design', 1998, #2 ) ;
#158 = ORIENTED_EDGE ( 'NONE', *, *, #309, .T. ) ;
#159 =( NAMED_UNIT ( * ) SI_UNIT ( $, .STERADIAN. ) SOLID_ANGLE_UNIT ( ) );
#160 = DIRECTION ( 'NONE',  ( 1.502314598737159771E-16, -1.000000000000000000, 0.0000000000000000000 ) ) ;
#161 = CARTESIAN_POINT ( 'NONE',  ( 0.05682581389661667953, 0.09842519685039373412, 0.1875000000000000278 ) ) ;
#162 = FACE_OUTER_BOUND ( 'NONE', #235, .T. ) ;
#163 = DIRECTION ( 'NONE',  ( 1.000000000000000000, 1.502314598737159771E-16, 0.0000000000000000000 ) ) ;
#164 = PRODUCT_CONTEXT ( 'NONE', #2, 'mechanical' ) ;
#165 = ORIENTED_EDGE ( 'NONE', *, *, #24, .T. ) ;
#166 = DIRECTION ( 'NONE',  ( 1.000000000000000000, 0.0000000000000000000, 0.0000000000000000000 ) ) ;
#167 = DIRECTION ( 'NONE',  ( 0.0000000000000000000, 0.0000000000000000000, 1.000000000000000000 ) ) ;
#168 =( NAMED_UNIT ( * ) PLANE_ANGLE_UNIT ( ) SI_UNIT ( $, .RADIAN. ) );
#169 = LENGTH_MEASURE_WITH_UNIT ( LENGTH_MEASURE( 0.02539999999999999897 ), #172 );
#170 = CLOSED_SHELL ( 'NONE', ( #269, #8, #50, #104, #267, #241, #240, #92, #135 ) ) ;
#171 =( CONVERSION_BASED_UNIT ( 'INCH', #169 ) LENGTH_UNIT ( ) NAMED_UNIT ( #61 ) );
#172 =( LENGTH_UNIT ( ) NAMED_UNIT ( * ) SI_UNIT ( $, .METRE. ) );
#173 = ORIENTED_EDGE ( 'NONE', *, *, #194, .F. ) ;
#174 = ORIENTED_EDGE ( 'NONE', *, *, #24, .F. ) ;
#175 = VERTEX_POINT ( 'NONE', #176 ) ;
#176 = CARTESIAN_POINT ( 'NONE',  ( 0.3937007874015748254, 0.0000000000000000000, 0.0000000000000000000 ) ) ;
#177 = CARTESIAN_POINT ( 'NONE',  ( 0.3937007874015748254, 0.0000000000000000000, 0.1875000000000000278 ) ) ;
#178 = ORIENTED_EDGE ( 'NONE', *, *, #106, .T. ) ;
#179 = VERTEX_POINT ( 'NONE', #177 ) ;
#180 = DIRECTION ( 'NONE',  ( 1.000000000000000000, 0.0000000000000000000, 0.0000000000000000000 ) ) ;
#181 = ORIENTED_EDGE ( 'NONE', *, *, #28, .T. ) ;
#182 = DIRECTION ( 'NONE',  ( 0.0000000000000000000, 0.0000000000000000000, 1.000000000000000000 ) ) ;
#183 = CARTESIAN_POINT ( 'NONE',  ( 0.0000000000000000000, 0.0000000000000000000, 0.0000000000000000000 ) ) ;
#184 = DIRECTION ( 'NONE',  ( 1.000000000000000000, 3.004629197474316090E-16, 0.0000000000000000000 ) ) ;
#185 = CARTESIAN_POINT ( 'NONE',  ( -0.05682581389661671423, -0.09842519685039365085, 0.1875000000000000278 ) ) ;
#186 = EDGE_LOOP ( 'NONE', ( #107 ) ) ;
#187 = LINE ( 'NONE', #185, #266 ) ;
#188 = DIRECTION ( 'NONE',  ( -1.000000000000000000, -1.502314598737159524E-16, 0.0000000000000000000 ) ) ;
#189 = CARTESIAN_POINT ( 'NONE',  ( 0.05682581389661667953, 0.09842519685039373412, 0.1875000000000000278 ) ) ;
#190 = LINE ( 'NONE', #189, #47 ) ;
#191 = VERTEX_POINT ( 'NONE', #75 ) ;
#192 = PLANE ( 'NONE',  #88 ) ;
#193 = ORIENTED_EDGE ( 'NONE', *, *, #3, .F. ) ;
#194 = EDGE_CURVE ( 'NONE', #112, #239, #44, .T. ) ;
#195 = VERTEX_POINT ( 'NONE', #11 ) ;
#196 = ORIENTED_EDGE ( 'NONE', *, *, #28, .F. ) ;
#197 = DIRECTION ( 'NONE',  ( -0.0000000000000000000, -0.0000000000000000000, -1.000000000000000000 ) ) ;
#198 = ORIENTED_EDGE ( 'NONE', *, *, #293, .T. ) ;
#199 = ORIENTED_EDGE ( 'NONE', *, *, #222, .T. ) ;
#200 = CARTESIAN_POINT ( 'NONE',  ( -0.1136516277932334423, 3.484107800201510529E-17, 0.1875000000000000278 ) ) ;
#201 = LINE ( 'NONE', #200, #67 ) ;
#202 = DIRECTION ( 'NONE',  ( 1.000000000000000000, 0.0000000000000000000, -0.0000000000000000000 ) ) ;
#203 = EDGE_LOOP ( 'NONE', ( #206, #210, #214, #219 ) ) ;
#204 = DIRECTION ( 'NONE',  ( 0.0000000000000000000, 0.0000000000000000000, 1.000000000000000000 ) ) ;
#205 = CARTESIAN_POINT ( 'NONE',  ( 0.0000000000000000000, 0.0000000000000000000, 0.1875000000000000278 ) ) ;
#206 = ORIENTED_EDGE ( 'NONE', *, *, #77, .F. ) ;
#207 = PLANE ( 'NONE',  #85 ) ;
#208 = VERTEX_POINT ( 'NONE', #13 ) ;
#209 = FACE_BOUND ( 'NONE', #232, .T. ) ;
#210 = ORIENTED_EDGE ( 'NONE', *, *, #222, .F. ) ;
#211 = FACE_OUTER_BOUND ( 'NONE', #186, .T. ) ;
#212 = DIRECTION ( 'NONE',  ( 0.5000000000000003331, -0.8660254037844383745, 0.0000000000000000000 ) ) ;
#213 = DIRECTION ( 'NONE',  ( -0.8660254037844384856, -0.5000000000000004441, 0.0000000000000000000 ) ) ;
#214 = ORIENTED_EDGE ( 'NONE', *, *, #60, .T. ) ;
#215 = CARTESIAN_POINT ( 'NONE',  ( 0.1136516277932334840, -3.511000800346711873E-17, 0.1875000000000000278 ) ) ;
#216 = PLANE ( 'NONE',  #90 ) ;
#217 = FACE_OUTER_BOUND ( 'NONE', #141, .T. ) ;
#218 = DIRECTION ( 'NONE',  ( 0.5000000000000001110, 0.8660254037844384856, 0.0000000000000000000 ) ) ;
#219 = ORIENTED_EDGE ( 'NONE', *, *, #282, .T. ) ;
#220 = ORIENTED_EDGE ( 'NONE', *, *, #6, .F. ) ;
#221 = ORIENTED_EDGE ( 'NONE', *, *, #282, .F. ) ;
#222 = EDGE_CURVE ( 'NONE', #244, #238, #294, .T. ) ;
#223 = ORIENTED_EDGE ( 'NONE', *, *, #99, .T. ) ;
#224 = ORIENTED_EDGE ( 'NONE', *, *, #82, .T. ) ;
#225 = ORIENTED_EDGE ( 'NONE', *, *, #70, .F. ) ;
#226 = ORIENTED_EDGE ( 'NONE', *, *, #82, .F. ) ;
#227 = EDGE_LOOP ( 'NONE', ( #225, #226, #228, #231 ) ) ;
#228 = ORIENTED_EDGE ( 'NONE', *, *, #297, .T. ) ;
#229 = PRODUCT ( 'am-4535-188 5mm Hex x 188IN Spacer', 'am-4535-188 5mm Hex x 188IN Spacer', '', ( #164 ) ) ;
#230 = VERTEX_POINT ( 'NONE', #98 ) ;
#231 = ORIENTED_EDGE ( 'NONE', *, *, #234, .T. ) ;
#232 = EDGE_LOOP ( 'NONE', ( #109, #117, #111, #129, #119, #120 ) ) ;
#233 = EDGE_LOOP ( 'NONE', ( #158 ) ) ;
#234 = EDGE_CURVE ( 'NONE', #123, #230, #59, .T. ) ;
#235 = EDGE_LOOP ( 'NONE', ( #193, #196, #198, #199 ) ) ;
#236 = VERTEX_POINT ( 'NONE', #56 ) ;
#237 = EDGE_LOOP ( 'NONE', ( #127, #131, #133, #143, #147, #154 ) ) ;
#238 = VERTEX_POINT ( 'NONE', #10 ) ;
#239 = VERTEX_POINT ( 'NONE', #71 ) ;
#240 = ADVANCED_FACE ( 'NONE', ( #291 ), #292, .T. ) ;
#241 = ADVANCED_FACE ( 'NONE', ( #162 ), #192, .T. ) ;
#242 = VERTEX_POINT ( 'NONE', #132 ) ;
#243 = EDGE_LOOP ( 'NONE', ( #220, #221, #223, #224 ) ) ;
#244 = VERTEX_POINT ( 'NONE', #136 ) ;
#245 = ORIENTED_EDGE ( 'NONE', *, *, #234, .F. ) ;
#246 = VERTEX_POINT ( 'NONE', #137 ) ;
#247 = LINE ( 'NONE', #249, #265 ) ;
#248 = PRODUCT_RELATED_PRODUCT_CATEGORY ( 'part', '', ( #229 ) ) ;
#249 = CARTESIAN_POINT ( 'NONE',  ( 0.05682581389661667953, 0.09842519685039373412, 0.0000000000000000000 ) ) ;
#250 = EDGE_CURVE ( 'NONE', #123, #236, #134, .T. ) ;
#251 = DIRECTION ( 'NONE',  ( -1.000000000000000000, -1.502314598737159524E-16, 0.0000000000000000000 ) ) ;
#252 = LINE ( 'NONE', #253, #17 ) ;
#253 = CARTESIAN_POINT ( 'NONE',  ( -0.1136516277932334423, 3.484107800201510529E-17, 0.0000000000000000000 ) ) ;
#254 = DIRECTION ( 'NONE',  ( 0.5000000000000001110, -0.8660254037844384856, 0.0000000000000000000 ) ) ;
#255 = FACE_OUTER_BOUND ( 'NONE', #121, .T. ) ;
#256 = FACE_BOUND ( 'NONE', #237, .T. ) ;
#257 = PLANE ( 'NONE',  #23 ) ;
#258 = CARTESIAN_POINT ( 'NONE',  ( 0.0000000000000000000, 0.0000000000000000000, 0.0000000000000000000 ) ) ;
#259 = DIRECTION ( 'NONE',  ( 0.0000000000000000000, 0.0000000000000000000, 1.000000000000000000 ) ) ;
#260 = DIRECTION ( 'NONE',  ( 1.000000000000000000, 0.0000000000000000000, -0.0000000000000000000 ) ) ;
#261 = LINE ( 'NONE', #262, #22 ) ;
#262 = CARTESIAN_POINT ( 'NONE',  ( 0.05682581389661680443, -0.09842519685039362309, 0.0000000000000000000 ) ) ;
#263 = DIRECTION ( 'NONE',  ( 0.5000000000000001110, 0.8660254037844384856, 0.0000000000000000000 ) ) ;
#264 = LINE ( 'NONE', #268, #79 ) ;
#265 = VECTOR ( 'NONE', #251, 39.37007874015748143 ) ;
#266 = VECTOR ( 'NONE', #184, 39.37007874015748143 ) ;
#267 = ADVANCED_FACE ( 'NONE', ( #217 ), #216, .T. ) ;
#268 = CARTESIAN_POINT ( 'NONE',  ( 0.1136516277932334840, -3.511000800346711873E-17, 0.1875000000000000278 ) ) ;
#269 = ADVANCED_FACE ( 'NONE', ( #211, #209 ), #207, .T. ) ;
#270 = DIRECTION ( 'NONE',  ( -0.0000000000000000000, -0.0000000000000000000, -1.000000000000000000 ) ) ;
#271 = LINE ( 'NONE', #272, #296 ) ;
#272 = CARTESIAN_POINT ( 'NONE',  ( 0.05682581389661667953, 0.09842519685039373412, 0.1875000000000000278 ) ) ;
#273 = DIRECTION ( 'NONE',  ( -0.0000000000000000000, -0.0000000000000000000, -1.000000000000000000 ) ) ;
#274 = FILL_AREA_STYLE ('',( #25 ) ) ;
#275 = SURFACE_STYLE_USAGE ( .BOTH. , #284 ) ;
#276 = PRESENTATION_STYLE_ASSIGNMENT (( #275 ) ) ;
#277 = DIRECTION ( 'NONE',  ( -0.5000000000000001110, -0.8660254037844384856, 0.0000000000000000000 ) ) ;
#278 =( LENGTH_UNIT ( ) NAMED_UNIT ( * ) SI_UNIT ( $, .METRE. ) );
#279 = PRODUCT_DEFINITION_SHAPE ( 'NONE', 'NONE',  #68 ) ;
#280 = VECTOR ( 'NONE', #118, 39.37007874015748143 ) ;
#281 = COLOUR_RGB ( '',0.2509803921568627416, 0.2509803921568627416, 0.2509803921568627416 ) ;
#282 = EDGE_CURVE ( 'NONE', #195, #242, #201, .T. ) ;
#283 = LENGTH_MEASURE_WITH_UNIT ( LENGTH_MEASURE( 0.02539999999999999897 ), #278 );
#284 = SURFACE_SIDE_STYLE ('',( #78 ) ) ;
#285 =( CONVERSION_BASED_UNIT ( 'INCH', #283 ) LENGTH_UNIT ( ) NAMED_UNIT ( #80 ) );
#286 = VECTOR ( 'NONE', #101, 39.37007874015748143 ) ;
#287 = STYLED_ITEM ( 'NONE', ( #276 ), #32 ) ;
#288 =( NAMED_UNIT ( * ) PLANE_ANGLE_UNIT ( ) SI_UNIT ( $, .RADIAN. ) );
#289 = CARTESIAN_POINT ( 'NONE',  ( -0.1136516277932334423, 3.484107800201510529E-17, 0.1875000000000000278 ) ) ;
#290 = CARTESIAN_POINT ( 'NONE',  ( -0.05682581389661671423, -0.09842519685039365085, 0.1875000000000000278 ) ) ;
#291 = FACE_OUTER_BOUND ( 'NONE', #203, .T. ) ;
#292 = PLANE ( 'NONE',  #57 ) ;
#293 = EDGE_CURVE ( 'NONE', #208, #244, #190, .T. ) ;
#294 = LINE ( 'NONE', #37, #63 ) ;
#295 = VECTOR ( 'NONE', #49, 39.37007874015748854 ) ;
#296 = VECTOR ( 'NONE', #273, 39.37007874015748143 ) ;
#297 = EDGE_CURVE ( 'NONE', #191, #123, #187, .T. ) ;
#298 = FACE_OUTER_BOUND ( 'NONE', #233, .T. ) ;
#299 = VECTOR ( 'NONE', #73, 39.37007874015748854 ) ;
#300 = LINE ( 'NONE', #43, #286 ) ;
#301 = DIRECTION ( 'NONE',  ( -0.0000000000000000000, -0.0000000000000000000, -1.000000000000000000 ) ) ;
#302 = MECHANICAL_DESIGN_GEOMETRIC_PRESENTATION_REPRESENTATION (  '', ( #287 ), #64 ) ;
#303 = LINE ( 'NONE', #5, #45 ) ;
#304 = DIRECTION ( 'NONE',  ( -0.5000000000000001110, -0.8660254037844384856, 0.0000000000000000000 ) ) ;
#305 = UNCERTAINTY_MEASURE_WITH_UNIT (LENGTH_MEASURE( 1.000000000000000082E-05 ), #285, 'distance_accuracy_value', 'NONE');
#306 = FACE_OUTER_BOUND ( 'NONE', #124, .T. ) ;
#307 = DIRECTION ( 'NONE',  ( -0.5000000000000002220, 0.8660254037844383745, 0.0000000000000000000 ) ) ;
#308 = UNCERTAINTY_MEASURE_WITH_UNIT (LENGTH_MEASURE( 1.000000000000000082E-05 ), #142, 'distance_accuracy_value', 'NONE');
#309 = EDGE_CURVE ( 'NONE', #175, #175, #103, .T. ) ;
#310 = CARTESIAN_POINT ( 'NONE',  ( 0.0000000000000000000, 0.0000000000000000000, 0.1875000000000000278 ) ) ;
#311 =( NAMED_UNIT ( * ) SI_UNIT ( $, .STERADIAN. ) SOLID_ANGLE_UNIT ( ) );
ENDSEC;
END-ISO-10303-21;
