ISO-10303-21;
HEADER;
FILE_DESCRIPTION (( 'STEP AP214' ),
    '1' );
FILE_NAME ('am-4535-125 5mm Hex x 125IN Spacer.STEP',
    '2021-02-26T21:28:41',
    ( '' ),
    ( '' ),
    'SwSTEP 2.0',
    'SolidWorks 2019',
    '' );
FILE_SCHEMA (( 'AUTOMOTIVE_DESIGN' ));
ENDSEC;

DATA;
#1 = FACE_OUTER_BOUND ( 'NONE', #203, .T. ) ;
#2 = CARTESIAN_POINT ( 'NONE',  ( 0.05682581389661680443, -0.09842519685039362309, 0.1250000000000000000 ) ) ;
#3 = ADVANCED_FACE ( 'NONE', ( #208 ), #209, .T. ) ;
#4 = EDGE_CURVE ( 'NONE', #157, #201, #214, .T. ) ;
#5 = EDGE_CURVE ( 'NONE', #188, #111, #222, .T. ) ;
#6 = ORIENTED_EDGE ( 'NONE', *, *, #207, .T. ) ;
#7 = DIRECTION ( 'NONE',  ( 0.5000000000000001110, 0.8660254037844384856, 0.0000000000000000000 ) ) ;
#8 = PRODUCT ( 'am-4535-125 5mm Hex x 125IN Spacer', 'am-4535-125 5mm Hex x 125IN Spacer', '', ( #146 ) ) ;
#9 =( NAMED_UNIT ( * ) PLANE_ANGLE_UNIT ( ) SI_UNIT ( $, .RADIAN. ) );
#10 = PRESENTATION_STYLE_ASSIGNMENT (( #24 ) ) ;
#11 = AXIS2_PLACEMENT_3D ( 'NONE', #29, #30, #267 ) ;
#12 = PRODUCT_DEFINITION_CONTEXT ( 'detailed design', #166, 'design' ) ;
#13 = PRODUCT_DEFINITION_FORMATION_WITH_SPECIFIED_SOURCE ( 'ANY', '', #8, .NOT_KNOWN. ) ;
#14 = SURFACE_STYLE_FILL_AREA ( #310 ) ;
#15 = CARTESIAN_POINT ( 'NONE',  ( -0.1136516277932334423, 3.484107800201510529E-17, 0.0000000000000000000 ) ) ;
#16 = EDGE_CURVE ( 'NONE', #175, #188, #227, .T. ) ;
#17 = VECTOR ( 'NONE', #220, 39.37007874015748854 ) ;
#18 = ORIENTED_EDGE ( 'NONE', *, *, #258, .F. ) ;
#19 = DIRECTION ( 'NONE',  ( 1.000000000000000000, 0.0000000000000000000, 0.0000000000000000000 ) ) ;
#20 = PRODUCT_DEFINITION_SHAPE ( 'NONE', 'NONE',  #26 ) ;
#21 = CARTESIAN_POINT ( 'NONE',  ( 0.1136516277932334840, -3.511000800346711873E-17, 0.0000000000000000000 ) ) ;
#22 = VECTOR ( 'NONE', #78, 39.37007874015748854 ) ;
#23 =( CONVERSION_BASED_UNIT ( 'INCH', #296 ) LENGTH_UNIT ( ) NAMED_UNIT ( #226 ) );
#24 = SURFACE_STYLE_USAGE ( .BOTH. , #25 ) ;
#25 = SURFACE_SIDE_STYLE ('',( #14 ) ) ;
#26 = PRODUCT_DEFINITION ( 'UNKNOWN', '', #13, #12 ) ;
#27 = VECTOR ( 'NONE', #36, 39.37007874015748143 ) ;
#28 = CARTESIAN_POINT ( 'NONE',  ( 0.1136516277932334840, -3.511000800346711873E-17, 0.1250000000000000000 ) ) ;
#29 = CARTESIAN_POINT ( 'NONE',  ( 0.0000000000000000000, 0.0000000000000000000, 0.0000000000000000000 ) ) ;
#30 = DIRECTION ( 'NONE',  ( 0.0000000000000000000, 0.0000000000000000000, 1.000000000000000000 ) ) ;
#31 = EDGE_CURVE ( 'NONE', #168, #198, #230, .T. ) ;
#32 = VECTOR ( 'NONE', #232, 39.37007874015748854 ) ;
#33 = DIRECTION ( 'NONE',  ( 0.8660254037844385966, 0.5000000000000002220, -0.0000000000000000000 ) ) ;
#34 = APPLICATION_CONTEXT ( 'automotive_design' ) ;
#35 = LINE ( 'NONE', #304, #242 ) ;
#36 = DIRECTION ( 'NONE',  ( -0.0000000000000000000, -0.0000000000000000000, -1.000000000000000000 ) ) ;
#37 = DIRECTION ( 'NONE',  ( -0.0000000000000000000, -0.0000000000000000000, -1.000000000000000000 ) ) ;
#38 = VECTOR ( 'NONE', #273, 39.37007874015748143 ) ;
#39 = VERTEX_POINT ( 'NONE', #233 ) ;
#40 =( GEOMETRIC_REPRESENTATION_CONTEXT ( 3 ) GLOBAL_UNCERTAINTY_ASSIGNED_CONTEXT ( ( #277 ) ) GLOBAL_UNIT_ASSIGNED_CONTEXT ( ( #115, #117, #118 ) ) REPRESENTATION_CONTEXT ( 'NONE', 'WORKASPACE' ) );
#41 = AXIS2_PLACEMENT_3D ( 'NONE', #307, #33, #259 ) ;
#42 = VECTOR ( 'NONE', #91, 39.37007874015748143 ) ;
#43 = EDGE_CURVE ( 'NONE', #198, #39, #235, .T. ) ;
#44 =( GEOMETRIC_REPRESENTATION_CONTEXT ( 3 ) GLOBAL_UNCERTAINTY_ASSIGNED_CONTEXT ( ( #94 ) ) GLOBAL_UNIT_ASSIGNED_CONTEXT ( ( #23, #9, #261 ) ) REPRESENTATION_CONTEXT ( 'NONE', 'WORKASPACE' ) );
#45 = CARTESIAN_POINT ( 'NONE',  ( -0.05682581389661672117, 0.09842519685039372024, 0.0000000000000000000 ) ) ;
#46 = VECTOR ( 'NONE', #37, 39.37007874015748143 ) ;
#47 = VECTOR ( 'NONE', #237, 39.37007874015748854 ) ;
#48 = CARTESIAN_POINT ( 'NONE',  ( -0.05682581389661671423, -0.09842519685039365085, 0.1250000000000000000 ) ) ;
#49 = ADVANCED_FACE ( 'NONE', ( #239, #240 ), #241, .T. ) ;
#50 = CARTESIAN_POINT ( 'NONE',  ( 0.0000000000000000000, 0.0000000000000000000, 0.1250000000000000000 ) ) ;
#51 = MECHANICAL_DESIGN_GEOMETRIC_PRESENTATION_REPRESENTATION (  '', ( #284 ), #266 ) ;
#52 = AXIS2_PLACEMENT_3D ( 'NONE', #290, #297, #7 ) ;
#53 = VECTOR ( 'NONE', #96, 39.37007874015748143 ) ;
#54 = AXIS2_PLACEMENT_3D ( 'NONE', #243, #246, #247 ) ;
#55 = ADVANCED_FACE ( 'NONE', ( #248, #250 ), #252, .T. ) ;
#56 = AXIS2_PLACEMENT_3D ( 'NONE', #265, #303, #306 ) ;
#57 = AXIS2_PLACEMENT_3D ( 'NONE', #191, #192, #186 ) ;
#58 = PRESENTATION_LAYER_ASSIGNMENT (  '', '', ( #284 ) ) ;
#59 = DIMENSIONAL_EXPONENTS ( 1.000000000000000000, 0.0000000000000000000, 0.0000000000000000000, 0.0000000000000000000, 0.0000000000000000000, 0.0000000000000000000, 0.0000000000000000000 ) ;
#60 = EDGE_CURVE ( 'NONE', #151, #175, #256, .T. ) ;
#61 = CARTESIAN_POINT ( 'NONE',  ( -0.05682581389661672117, 0.09842519685039372024, 0.1250000000000000000 ) ) ;
#62 = ADVANCED_BREP_SHAPE_REPRESENTATION ( 'am-4535-125 5mm Hex x 125IN Spacer', ( #133, #196 ), #40 ) ;
#63 = VECTOR ( 'NONE', #311, 39.37007874015748854 ) ;
#64 = CARTESIAN_POINT ( 'NONE',  ( -0.05682581389661672117, 0.09842519685039372024, 0.1250000000000000000 ) ) ;
#65 = AXIS2_PLACEMENT_3D ( 'NONE', #210, #211, #213 ) ;
#66 = AXIS2_PLACEMENT_3D ( 'NONE', #50, #291, #19 ) ;
#67 = DIRECTION ( 'NONE',  ( 1.000000000000000000, 3.004629197474316090E-16, 0.0000000000000000000 ) ) ;
#68 = CARTESIAN_POINT ( 'NONE',  ( -0.05682581389661671423, -0.09842519685039365085, 0.1250000000000000000 ) ) ;
#69 = PLANE ( 'NONE',  #41 ) ;
#70 = FACE_OUTER_BOUND ( 'NONE', #205, .T. ) ;
#71 = VECTOR ( 'NONE', #225, 39.37007874015748854 ) ;
#72 = ADVANCED_FACE ( 'NONE', ( #309 ), #262, .T. ) ;
#73 = CLOSED_SHELL ( 'NONE', ( #55, #158, #49, #294, #3, #72, #120, #215, #234 ) ) ;
#74 = CARTESIAN_POINT ( 'NONE',  ( 0.05682581389661680443, -0.09842519685039362309, 0.0000000000000000000 ) ) ;
#75 = CARTESIAN_POINT ( 'NONE',  ( 0.05682581389661667953, 0.09842519685039373412, 0.1250000000000000000 ) ) ;
#76 = ORIENTED_EDGE ( 'NONE', *, *, #16, .F. ) ;
#77 = LINE ( 'NONE', #75, #42 ) ;
#78 = DIRECTION ( 'NONE',  ( -0.5000000000000002220, 0.8660254037844384856, 0.0000000000000000000 ) ) ;
#79 = CARTESIAN_POINT ( 'NONE',  ( 0.1136516277932334840, -3.511000800346711873E-17, 0.0000000000000000000 ) ) ;
#80 = DIRECTION ( 'NONE',  ( 1.000000000000000000, 0.0000000000000000000, 0.0000000000000000000 ) ) ;
#81 = LINE ( 'NONE', #79, #22 ) ;
#82 = DIRECTION ( 'NONE',  ( 0.0000000000000000000, 0.0000000000000000000, 1.000000000000000000 ) ) ;
#83 = EDGE_LOOP ( 'NONE', ( #144, #182, #145, #174 ) ) ;
#84 = ORIENTED_EDGE ( 'NONE', *, *, #251, .F. ) ;
#85 = EDGE_LOOP ( 'NONE', ( #6 ) ) ;
#86 = ORIENTED_EDGE ( 'NONE', *, *, #218, .F. ) ;
#87 = CARTESIAN_POINT ( 'NONE',  ( -0.1136516277932334423, 3.484107800201510529E-17, 0.1250000000000000000 ) ) ;
#88 = DIRECTION ( 'NONE',  ( -0.0000000000000000000, -0.0000000000000000000, -1.000000000000000000 ) ) ;
#89 = ORIENTED_EDGE ( 'NONE', *, *, #301, .T. ) ;
#90 = CARTESIAN_POINT ( 'NONE',  ( 0.05682581389661667953, 0.09842519685039373412, 0.1250000000000000000 ) ) ;
#91 = DIRECTION ( 'NONE',  ( -0.0000000000000000000, -0.0000000000000000000, -1.000000000000000000 ) ) ;
#92 = LINE ( 'NONE', #90, #53 ) ;
#93 = EDGE_CURVE ( 'NONE', #170, #202, #300, .T. ) ;
#94 = UNCERTAINTY_MEASURE_WITH_UNIT (LENGTH_MEASURE( 1.000000000000000082E-05 ), #23, 'distance_accuracy_value', 'NONE');
#95 = LINE ( 'NONE', #87, #221 ) ;
#96 = DIRECTION ( 'NONE',  ( -1.000000000000000000, -1.502314598737159524E-16, 0.0000000000000000000 ) ) ;
#97 = ORIENTED_EDGE ( 'NONE', *, *, #216, .F. ) ;
#98 = FACE_OUTER_BOUND ( 'NONE', #83, .T. ) ;
#99 = PLANE ( 'NONE',  #238 ) ;
#100 = CARTESIAN_POINT ( 'NONE',  ( 0.05682581389661680443, -0.09842519685039362309, 0.1250000000000000000 ) ) ;
#101 = ORIENTED_EDGE ( 'NONE', *, *, #263, .F. ) ;
#102 = DIRECTION ( 'NONE',  ( -0.8660254037844385966, 0.5000000000000002220, 0.0000000000000000000 ) ) ;
#103 = DIRECTION ( 'NONE',  ( -0.5000000000000001110, -0.8660254037844384856, 0.0000000000000000000 ) ) ;
#104 = LINE ( 'NONE', #105, #193 ) ;
#105 = CARTESIAN_POINT ( 'NONE',  ( -0.1136516277932334423, 3.484107800201510529E-17, 0.1250000000000000000 ) ) ;
#106 = DIRECTION ( 'NONE',  ( 0.5000000000000001110, -0.8660254037844384856, 0.0000000000000000000 ) ) ;
#107 = VERTEX_POINT ( 'NONE', #108 ) ;
#108 = CARTESIAN_POINT ( 'NONE',  ( 0.3937007874015748254, 0.0000000000000000000, 0.1250000000000000000 ) ) ;
#109 = VERTEX_POINT ( 'NONE', #110 ) ;
#110 = CARTESIAN_POINT ( 'NONE',  ( 0.3937007874015748254, 0.0000000000000000000, 0.0000000000000000000 ) ) ;
#111 = VERTEX_POINT ( 'NONE', #289 ) ;
#112 =( LENGTH_UNIT ( ) NAMED_UNIT ( * ) SI_UNIT ( $, .METRE. ) );
#113 = COLOUR_RGB ( '',0.2509803921568627416, 0.2509803921568627416, 0.2509803921568627416 ) ;
#114 = LENGTH_MEASURE_WITH_UNIT ( LENGTH_MEASURE( 0.02539999999999999897 ), #112 );
#115 =( CONVERSION_BASED_UNIT ( 'INCH', #114 ) LENGTH_UNIT ( ) NAMED_UNIT ( #244 ) );
#116 = ORIENTED_EDGE ( 'NONE', *, *, #16, .T. ) ;
#117 =( NAMED_UNIT ( * ) PLANE_ANGLE_UNIT ( ) SI_UNIT ( $, .RADIAN. ) );
#118 =( NAMED_UNIT ( * ) SI_UNIT ( $, .STERADIAN. ) SOLID_ANGLE_UNIT ( ) );
#119 = APPLICATION_PROTOCOL_DEFINITION ( 'draft international standard', 'automotive_design', 1998, #34 ) ;
#120 = ADVANCED_FACE ( 'NONE', ( #1 ), #295, .T. ) ;
#121 = FILL_AREA_STYLE_COLOUR ( '', #223 ) ;
#122 = FILL_AREA_STYLE ('',( #121 ) ) ;
#123 = ORIENTED_EDGE ( 'NONE', *, *, #43, .F. ) ;
#124 = SURFACE_STYLE_FILL_AREA ( #122 ) ;
#125 = SURFACE_SIDE_STYLE ('',( #124 ) ) ;
#126 = SURFACE_STYLE_USAGE ( .BOTH. , #125 ) ;
#127 = PRESENTATION_STYLE_ASSIGNMENT (( #126 ) ) ;
#128 = ORIENTED_EDGE ( 'NONE', *, *, #60, .F. ) ;
#129 =( LENGTH_UNIT ( ) NAMED_UNIT ( * ) SI_UNIT ( $, .METRE. ) );
#130 = ORIENTED_EDGE ( 'NONE', *, *, #218, .T. ) ;
#131 = LENGTH_MEASURE_WITH_UNIT ( LENGTH_MEASURE( 0.02539999999999999897 ), #129 );
#132 =( CONVERSION_BASED_UNIT ( 'INCH', #131 ) LENGTH_UNIT ( ) NAMED_UNIT ( #59 ) );
#133 = MANIFOLD_SOLID_BREP ( 'Boss-Extrude1', #73 ) ;
#134 =( NAMED_UNIT ( * ) PLANE_ANGLE_UNIT ( ) SI_UNIT ( $, .RADIAN. ) );
#135 = EDGE_LOOP ( 'NONE', ( #206, #86, #137, #195 ) ) ;
#136 =( NAMED_UNIT ( * ) SI_UNIT ( $, .STERADIAN. ) SOLID_ANGLE_UNIT ( ) );
#137 = ORIENTED_EDGE ( 'NONE', *, *, #212, .T. ) ;
#138 = LINE ( 'NONE', #275, #46 ) ;
#139 = ORIENTED_EDGE ( 'NONE', *, *, #270, .F. ) ;
#140 = CARTESIAN_POINT ( 'NONE',  ( 0.0000000000000000000, 0.0000000000000000000, 0.0000000000000000000 ) ) ;
#141 = DIRECTION ( 'NONE',  ( 0.0000000000000000000, 0.0000000000000000000, 1.000000000000000000 ) ) ;
#142 = ORIENTED_EDGE ( 'NONE', *, *, #251, .T. ) ;
#143 = DIRECTION ( 'NONE',  ( 1.000000000000000000, 0.0000000000000000000, 0.0000000000000000000 ) ) ;
#144 = ORIENTED_EDGE ( 'NONE', *, *, #93, .F. ) ;
#145 = ORIENTED_EDGE ( 'NONE', *, *, #31, .T. ) ;
#146 = PRODUCT_CONTEXT ( 'NONE', #34, 'mechanical' ) ;
#147 = APPLICATION_PROTOCOL_DEFINITION ( 'draft international standard', 'automotive_design', 1998, #166 ) ;
#148 = DIRECTION ( 'NONE',  ( 1.000000000000000000, 3.004629197474316090E-16, 0.0000000000000000000 ) ) ;
#149 = SHAPE_DEFINITION_REPRESENTATION ( #20, #62 ) ;
#150 = ORIENTED_EDGE ( 'NONE', *, *, #258, .T. ) ;
#151 = VERTEX_POINT ( 'NONE', #302 ) ;
#152 = ORIENTED_EDGE ( 'NONE', *, *, #207, .F. ) ;
#153 = ORIENTED_EDGE ( 'NONE', *, *, #43, .T. ) ;
#154 = ORIENTED_EDGE ( 'NONE', *, *, #263, .T. ) ;
#155 = ORIENTED_EDGE ( 'NONE', *, *, #257, .T. ) ;
#156 = ORIENTED_EDGE ( 'NONE', *, *, #60, .T. ) ;
#157 = VERTEX_POINT ( 'NONE', #64 ) ;
#158 = ADVANCED_FACE ( 'NONE', ( #269, #274 ), #271, .F. ) ;
#159 = ORIENTED_EDGE ( 'NONE', *, *, #197, .T. ) ;
#160 = ORIENTED_EDGE ( 'NONE', *, *, #31, .F. ) ;
#161 = EDGE_LOOP ( 'NONE', ( #123, #160, #183, #164, #165, #139 ) ) ;
#162 = EDGE_CURVE ( 'NONE', #168, #170, #138, .T. ) ;
#163 = EDGE_LOOP ( 'NONE', ( #128, #101, #199, #179 ) ) ;
#164 = ORIENTED_EDGE ( 'NONE', *, *, #301, .F. ) ;
#165 = ORIENTED_EDGE ( 'NONE', *, *, #4, .F. ) ;
#166 = APPLICATION_CONTEXT ( 'automotive_design' ) ;
#167 = EDGE_LOOP ( 'NONE', ( #142 ) ) ;
#168 = VERTEX_POINT ( 'NONE', #2 ) ;
#169 = ORIENTED_EDGE ( 'NONE', *, *, #93, .T. ) ;
#170 = VERTEX_POINT ( 'NONE', #74 ) ;
#171 = EDGE_LOOP ( 'NONE', ( #177, #172, #153, #154 ) ) ;
#172 = ORIENTED_EDGE ( 'NONE', *, *, #217, .F. ) ;
#173 = CIRCLE ( 'NONE', #293, 0.3937007874015748254 ) ;
#174 = ORIENTED_EDGE ( 'NONE', *, *, #217, .T. ) ;
#175 = VERTEX_POINT ( 'NONE', #45 ) ;
#176 = PRODUCT_RELATED_PRODUCT_CATEGORY ( 'part', '', ( #8 ) ) ;
#177 = ORIENTED_EDGE ( 'NONE', *, *, #257, .F. ) ;
#178 = ORIENTED_EDGE ( 'NONE', *, *, #5, .T. ) ;
#179 = ORIENTED_EDGE ( 'NONE', *, *, #216, .T. ) ;
#180 = LINE ( 'NONE', #194, #187 ) ;
#181 = EDGE_LOOP ( 'NONE', ( #152 ) ) ;
#182 = ORIENTED_EDGE ( 'NONE', *, *, #162, .F. ) ;
#183 = ORIENTED_EDGE ( 'NONE', *, *, #212, .F. ) ;
#184 = CARTESIAN_POINT ( 'NONE',  ( 0.0000000000000000000, 0.0000000000000000000, 0.0000000000000000000 ) ) ;
#185 = EDGE_LOOP ( 'NONE', ( #169, #155, #156, #116, #178, #159 ) ) ;
#186 = DIRECTION ( 'NONE',  ( -1.000000000000000000, -3.004629197474316090E-16, 0.0000000000000000000 ) ) ;
#187 = VECTOR ( 'NONE', #279, 39.37007874015748143 ) ;
#188 = VERTEX_POINT ( 'NONE', #15 ) ;
#189 = VERTEX_POINT ( 'NONE', #48 ) ;
#190 = EDGE_LOOP ( 'NONE', ( #84 ) ) ;
#191 = CARTESIAN_POINT ( 'NONE',  ( -0.05682581389661671423, -0.09842519685039365085, 0.1250000000000000000 ) ) ;
#192 = DIRECTION ( 'NONE',  ( -3.004629197474316090E-16, 1.000000000000000000, 0.0000000000000000000 ) ) ;
#193 = VECTOR ( 'NONE', #106, 39.37007874015748854 ) ;
#194 = CARTESIAN_POINT ( 'NONE',  ( 0.1136516277932334840, -3.511000800346711873E-17, 0.1250000000000000000 ) ) ;
#195 = ORIENTED_EDGE ( 'NONE', *, *, #162, .T. ) ;
#196 = AXIS2_PLACEMENT_3D ( 'NONE', #140, #141, #143 ) ;
#197 = EDGE_CURVE ( 'NONE', #111, #170, #35, .T. ) ;
#198 = VERTEX_POINT ( 'NONE', #28 ) ;
#199 = ORIENTED_EDGE ( 'NONE', *, *, #270, .T. ) ;
#200 = ORIENTED_EDGE ( 'NONE', *, *, #4, .T. ) ;
#201 = VERTEX_POINT ( 'NONE', #264 ) ;
#202 = VERTEX_POINT ( 'NONE', #21 ) ;
#203 = EDGE_LOOP ( 'NONE', ( #76, #97, #200, #150 ) ) ;
#204 = STYLED_ITEM ( 'NONE', ( #10 ), #133 ) ;
#205 = EDGE_LOOP ( 'NONE', ( #298, #18, #89, #130 ) ) ;
#206 = ORIENTED_EDGE ( 'NONE', *, *, #197, .F. ) ;
#207 = EDGE_CURVE ( 'NONE', #107, #107, #299, .T. ) ;
#208 = FACE_OUTER_BOUND ( 'NONE', #171, .T. ) ;
#209 = PLANE ( 'NONE',  #65 ) ;
#210 = CARTESIAN_POINT ( 'NONE',  ( 0.1136516277932334840, -3.511000800346711873E-17, 0.1250000000000000000 ) ) ;
#211 = DIRECTION ( 'NONE',  ( -0.8660254037844385966, -0.5000000000000003331, 0.0000000000000000000 ) ) ;
#212 = EDGE_CURVE ( 'NONE', #189, #168, #283, .T. ) ;
#213 = DIRECTION ( 'NONE',  ( 0.5000000000000002220, -0.8660254037844384856, 0.0000000000000000000 ) ) ;
#214 = LINE ( 'NONE', #219, #17 ) ;
#215 = ADVANCED_FACE ( 'NONE', ( #70 ), #69, .T. ) ;
#216 = EDGE_CURVE ( 'NONE', #157, #175, #288, .T. ) ;
#217 = EDGE_CURVE ( 'NONE', #198, #202, #180, .T. ) ;
#218 = EDGE_CURVE ( 'NONE', #189, #111, #280, .T. ) ;
#219 = CARTESIAN_POINT ( 'NONE',  ( -0.05682581389661672117, 0.09842519685039372024, 0.1250000000000000000 ) ) ;
#220 = DIRECTION ( 'NONE',  ( -0.5000000000000001110, -0.8660254037844384856, 0.0000000000000000000 ) ) ;
#221 = VECTOR ( 'NONE', #88, 39.37007874015748143 ) ;
#222 = LINE ( 'NONE', #224, #71 ) ;
#223 = COLOUR_RGB ( '',0.2509803921568627416, 0.2509803921568627416, 0.2509803921568627416 ) ;
#224 = CARTESIAN_POINT ( 'NONE',  ( -0.1136516277932334423, 3.484107800201510529E-17, 0.0000000000000000000 ) ) ;
#225 = DIRECTION ( 'NONE',  ( 0.5000000000000001110, -0.8660254037844384856, 0.0000000000000000000 ) ) ;
#226 = DIMENSIONAL_EXPONENTS ( 1.000000000000000000, 0.0000000000000000000, 0.0000000000000000000, 0.0000000000000000000, 0.0000000000000000000, 0.0000000000000000000, 0.0000000000000000000 ) ;
#227 = LINE ( 'NONE', #228, #286 ) ;
#228 = CARTESIAN_POINT ( 'NONE',  ( -0.05682581389661672117, 0.09842519685039372024, 0.0000000000000000000 ) ) ;
#229 = DIRECTION ( 'NONE',  ( -0.5000000000000001110, -0.8660254037844384856, 0.0000000000000000000 ) ) ;
#230 = LINE ( 'NONE', #231, #32 ) ;
#231 = CARTESIAN_POINT ( 'NONE',  ( 0.05682581389661680443, -0.09842519685039362309, 0.1250000000000000000 ) ) ;
#232 = DIRECTION ( 'NONE',  ( 0.5000000000000001110, 0.8660254037844384856, 0.0000000000000000000 ) ) ;
#233 = CARTESIAN_POINT ( 'NONE',  ( 0.05682581389661667953, 0.09842519685039373412, 0.1250000000000000000 ) ) ;
#234 = ADVANCED_FACE ( 'NONE', ( #278 ), #245, .T. ) ;
#235 = LINE ( 'NONE', #236, #47 ) ;
#236 = CARTESIAN_POINT ( 'NONE',  ( 0.1136516277932334840, -3.511000800346711873E-17, 0.1250000000000000000 ) ) ;
#237 = DIRECTION ( 'NONE',  ( -0.5000000000000002220, 0.8660254037844384856, 0.0000000000000000000 ) ) ;
#238 = AXIS2_PLACEMENT_3D ( 'NONE', #100, #102, #103 ) ;
#239 = FACE_OUTER_BOUND ( 'NONE', #181, .T. ) ;
#240 = FACE_OUTER_BOUND ( 'NONE', #167, .T. ) ;
#241 = CYLINDRICAL_SURFACE ( 'NONE', #54, 0.3937007874015748254 ) ;
#242 = VECTOR ( 'NONE', #148, 39.37007874015748143 ) ;
#243 = CARTESIAN_POINT ( 'NONE',  ( 0.0000000000000000000, 0.0000000000000000000, 0.1250000000000000000 ) ) ;
#244 = DIMENSIONAL_EXPONENTS ( 1.000000000000000000, 0.0000000000000000000, 0.0000000000000000000, 0.0000000000000000000, 0.0000000000000000000, 0.0000000000000000000, 0.0000000000000000000 ) ;
#245 = PLANE ( 'NONE',  #57 ) ;
#246 = DIRECTION ( 'NONE',  ( -0.0000000000000000000, -0.0000000000000000000, -1.000000000000000000 ) ) ;
#247 = DIRECTION ( 'NONE',  ( -1.000000000000000000, 0.0000000000000000000, 0.0000000000000000000 ) ) ;
#248 = FACE_OUTER_BOUND ( 'NONE', #85, .T. ) ;
#249 = VECTOR ( 'NONE', #282, 39.37007874015748143 ) ;
#250 = FACE_BOUND ( 'NONE', #161, .T. ) ;
#251 = EDGE_CURVE ( 'NONE', #109, #109, #173, .T. ) ;
#252 = PLANE ( 'NONE',  #292 ) ;
#253 = CARTESIAN_POINT ( 'NONE',  ( 0.0000000000000000000, 0.0000000000000000000, 0.1250000000000000000 ) ) ;
#254 = DIRECTION ( 'NONE',  ( 0.0000000000000000000, 0.0000000000000000000, 1.000000000000000000 ) ) ;
#255 = DIRECTION ( 'NONE',  ( 1.000000000000000000, 0.0000000000000000000, -0.0000000000000000000 ) ) ;
#256 = LINE ( 'NONE', #285, #38 ) ;
#257 = EDGE_CURVE ( 'NONE', #202, #151, #81, .T. ) ;
#258 = EDGE_CURVE ( 'NONE', #201, #188, #95, .T. ) ;
#259 = DIRECTION ( 'NONE',  ( -0.5000000000000001110, 0.8660254037844384856, 0.0000000000000000000 ) ) ;
#260 =( LENGTH_UNIT ( ) NAMED_UNIT ( * ) SI_UNIT ( $, .METRE. ) );
#261 =( NAMED_UNIT ( * ) SI_UNIT ( $, .STERADIAN. ) SOLID_ANGLE_UNIT ( ) );
#262 = PLANE ( 'NONE',  #56 ) ;
#263 = EDGE_CURVE ( 'NONE', #39, #151, #77, .T. ) ;
#264 = CARTESIAN_POINT ( 'NONE',  ( -0.1136516277932334423, 3.484107800201510529E-17, 0.1250000000000000000 ) ) ;
#265 = CARTESIAN_POINT ( 'NONE',  ( 0.05682581389661667953, 0.09842519685039373412, 0.1250000000000000000 ) ) ;
#266 =( GEOMETRIC_REPRESENTATION_CONTEXT ( 3 ) GLOBAL_UNCERTAINTY_ASSIGNED_CONTEXT ( ( #308 ) ) GLOBAL_UNIT_ASSIGNED_CONTEXT ( ( #132, #134, #136 ) ) REPRESENTATION_CONTEXT ( 'NONE', 'WORKASPACE' ) );
#267 = DIRECTION ( 'NONE',  ( 1.000000000000000000, 0.0000000000000000000, -0.0000000000000000000 ) ) ;
#268 = PRESENTATION_LAYER_ASSIGNMENT (  '', '', ( #204 ) ) ;
#269 = FACE_OUTER_BOUND ( 'NONE', #190, .T. ) ;
#270 = EDGE_CURVE ( 'NONE', #39, #157, #92, .T. ) ;
#271 = PLANE ( 'NONE',  #11 ) ;
#272 = MECHANICAL_DESIGN_GEOMETRIC_PRESENTATION_REPRESENTATION (  '', ( #204 ), #44 ) ;
#273 = DIRECTION ( 'NONE',  ( -1.000000000000000000, -1.502314598737159524E-16, 0.0000000000000000000 ) ) ;
#274 = FACE_BOUND ( 'NONE', #185, .T. ) ;
#275 = CARTESIAN_POINT ( 'NONE',  ( 0.05682581389661680443, -0.09842519685039362309, 0.1250000000000000000 ) ) ;
#276 = FILL_AREA_STYLE_COLOUR ( '', #113 ) ;
#277 = UNCERTAINTY_MEASURE_WITH_UNIT (LENGTH_MEASURE( 1.000000000000000082E-05 ), #115, 'distance_accuracy_value', 'NONE');
#278 = FACE_OUTER_BOUND ( 'NONE', #135, .T. ) ;
#279 = DIRECTION ( 'NONE',  ( -0.0000000000000000000, -0.0000000000000000000, -1.000000000000000000 ) ) ;
#280 = LINE ( 'NONE', #281, #249 ) ;
#281 = CARTESIAN_POINT ( 'NONE',  ( -0.05682581389661671423, -0.09842519685039365085, 0.1250000000000000000 ) ) ;
#282 = DIRECTION ( 'NONE',  ( -0.0000000000000000000, -0.0000000000000000000, -1.000000000000000000 ) ) ;
#283 = LINE ( 'NONE', #68, #305 ) ;
#284 = STYLED_ITEM ( 'NONE', ( #127 ), #62 ) ;
#285 = CARTESIAN_POINT ( 'NONE',  ( 0.05682581389661667953, 0.09842519685039373412, 0.0000000000000000000 ) ) ;
#286 = VECTOR ( 'NONE', #229, 39.37007874015748854 ) ;
#287 = CARTESIAN_POINT ( 'NONE',  ( 0.05682581389661680443, -0.09842519685039362309, 0.0000000000000000000 ) ) ;
#288 = LINE ( 'NONE', #61, #27 ) ;
#289 = CARTESIAN_POINT ( 'NONE',  ( -0.05682581389661671423, -0.09842519685039365085, 0.0000000000000000000 ) ) ;
#290 = CARTESIAN_POINT ( 'NONE',  ( -0.05682581389661672117, 0.09842519685039372024, 0.1250000000000000000 ) ) ;
#291 = DIRECTION ( 'NONE',  ( 0.0000000000000000000, 0.0000000000000000000, 1.000000000000000000 ) ) ;
#292 = AXIS2_PLACEMENT_3D ( 'NONE', #253, #254, #255 ) ;
#293 = AXIS2_PLACEMENT_3D ( 'NONE', #184, #82, #80 ) ;
#294 = ADVANCED_FACE ( 'NONE', ( #98 ), #99, .T. ) ;
#295 = PLANE ( 'NONE',  #52 ) ;
#296 = LENGTH_MEASURE_WITH_UNIT ( LENGTH_MEASURE( 0.02539999999999999897 ), #260 );
#297 = DIRECTION ( 'NONE',  ( 0.8660254037844385966, -0.5000000000000002220, 0.0000000000000000000 ) ) ;
#298 = ORIENTED_EDGE ( 'NONE', *, *, #5, .F. ) ;
#299 = CIRCLE ( 'NONE', #66, 0.3937007874015748254 ) ;
#300 = LINE ( 'NONE', #287, #63 ) ;
#301 = EDGE_CURVE ( 'NONE', #201, #189, #104, .T. ) ;
#302 = CARTESIAN_POINT ( 'NONE',  ( 0.05682581389661667953, 0.09842519685039373412, 0.0000000000000000000 ) ) ;
#303 = DIRECTION ( 'NONE',  ( 1.502314598737159524E-16, -1.000000000000000000, 0.0000000000000000000 ) ) ;
#304 = CARTESIAN_POINT ( 'NONE',  ( -0.05682581389661671423, -0.09842519685039365085, 0.0000000000000000000 ) ) ;
#305 = VECTOR ( 'NONE', #67, 39.37007874015748143 ) ;
#306 = DIRECTION ( 'NONE',  ( 1.000000000000000000, 1.502314598737159524E-16, 0.0000000000000000000 ) ) ;
#307 = CARTESIAN_POINT ( 'NONE',  ( -0.1136516277932334423, 3.484107800201510529E-17, 0.1250000000000000000 ) ) ;
#308 = UNCERTAINTY_MEASURE_WITH_UNIT (LENGTH_MEASURE( 1.000000000000000082E-05 ), #132, 'distance_accuracy_value', 'NONE');
#309 = FACE_OUTER_BOUND ( 'NONE', #163, .T. ) ;
#310 = FILL_AREA_STYLE ('',( #276 ) ) ;
#311 = DIRECTION ( 'NONE',  ( 0.5000000000000001110, 0.8660254037844384856, 0.0000000000000000000 ) ) ;
ENDSEC;
END-ISO-10303-21;
